ISO-10303-21;
HEADER;
FILE_DESCRIPTION (( 'STEP AP203' ),
    '1' );
FILE_NAME ('sone3D.STEP',
    '2013-05-13T01:55:44',
    ( '' ),
    ( '' ),
    'SwSTEP 2.0',
    'SolidWorks 2012',
    '' );
FILE_SCHEMA (( 'CONFIG_CONTROL_DESIGN' ));
ENDSEC;

DATA;
#1 = FACE_OUTER_BOUND ( 'NONE', #205, .T. ) ;
#2 = AXIS2_PLACEMENT_3D ( 'NONE', #12, #11, #10 ) ;
#3 = VECTOR ( 'NONE', #7, 1000.000000000000000 ) ;
#4 = CARTESIAN_POINT ( 'NONE',  ( -5.000000000000000000, -2.500000000000000400, 1000.000000000000000 ) ) ;
#5 = LINE ( 'NONE', #4, #156 ) ;
#6 = CARTESIAN_POINT ( 'NONE',  ( -5.000000000000000000, 2.500000000000000400, 1000.000000000000000 ) ) ;
#7 = DIRECTION ( 'NONE',  ( 0.0000000000000000000, -1.000000000000000000, 0.0000000000000000000 ) ) ;
#8 = CARTESIAN_POINT ( 'NONE',  ( -5.000000000000000000, 2.500000000000000400, -1000.000000000000000 ) ) ;
#9 = LINE ( 'NONE', #8, #3 ) ;
#10 = DIRECTION ( 'NONE',  ( -0.0000000000000000000, 0.0000000000000000000, -1.000000000000000000 ) ) ;
#11 = DIRECTION ( 'NONE',  ( 1.000000000000000000, 0.0000000000000000000, -0.0000000000000000000 ) ) ;
#12 = CARTESIAN_POINT ( 'NONE',  ( -5.000000000000000000, 2.500000000000000400, 1000.000000000000000 ) ) ;
#13 = PLANE ( 'NONE',  #2 ) ;
#14 = DIRECTION ( 'NONE',  ( -1.000000000000000000, -4.336808689942017100E-017, 0.0000000000000000000 ) ) ;
#15 = DIRECTION ( 'NONE',  ( -4.336808689942017100E-017, 1.000000000000000000, 0.0000000000000000000 ) ) ;
#16 = CARTESIAN_POINT ( 'NONE',  ( -5.000000000000000000, -2.500000000000000400, 1000.000000000000000 ) ) ;
#17 = PLANE ( 'NONE',  #148 ) ;
#18 = DIRECTION ( 'NONE',  ( 1.734723475976807100E-016, -1.000000000000000000, 0.0000000000000000000 ) ) ;
#19 = DIRECTION ( 'NONE',  ( -1.000000000000000000, -1.734723475976807100E-016, 0.0000000000000000000 ) ) ;
#20 = CARTESIAN_POINT ( 'NONE',  ( 5.000000000000000000, 2.500000000000000000, 1000.000000000000000 ) ) ;
#21 = PLANE ( 'NONE',  #146 ) ;
#22 = DIRECTION ( 'NONE',  ( 1.000000000000000000, 0.0000000000000000000, 0.0000000000000000000 ) ) ;
#23 = DIRECTION ( 'NONE',  ( -0.0000000000000000000, 0.0000000000000000000, 1.000000000000000000 ) ) ;
#24 = CARTESIAN_POINT ( 'NONE',  ( 0.0000000000000000000, 0.0000000000000000000, 1000.000000000000000 ) ) ;
#25 = PLANE ( 'NONE',  #143 ) ;
#26 = DIRECTION ( 'NONE',  ( 1.000000000000000000, -4.336808689942017700E-017, 0.0000000000000000000 ) ) ;
#27 = DIRECTION ( 'NONE',  ( -4.336808689942017700E-017, -1.000000000000000000, 0.0000000000000000000 ) ) ;
#28 = CARTESIAN_POINT ( 'NONE',  ( -5.000000000000000000, 2.500000000000000400, 1000.000000000000000 ) ) ;
#29 = PLANE ( 'NONE',  #160 ) ;
#30 = DIRECTION ( 'NONE',  ( 1.000000000000000000, 0.0000000000000000000, 0.0000000000000000000 ) ) ;
#31 = DIRECTION ( 'NONE',  ( -0.0000000000000000000, 0.0000000000000000000, 1.000000000000000000 ) ) ;
#32 = CARTESIAN_POINT ( 'NONE',  ( 0.0000000000000000000, 0.0000000000000000000, -1000.000000000000000 ) ) ;
#33 = DIRECTION ( 'NONE',  ( 0.0000000000000000000, -1.000000000000000000, 0.0000000000000000000 ) ) ;
#34 = CARTESIAN_POINT ( 'NONE',  ( -5.000000000000000000, 2.500000000000000400, 1000.000000000000000 ) ) ;
#35 = LINE ( 'NONE', #34, #202 ) ;
#36 = DIRECTION ( 'NONE',  ( -1.734723475976807100E-016, 1.000000000000000000, -0.0000000000000000000 ) ) ;
#37 = CARTESIAN_POINT ( 'NONE',  ( 5.000000000000000000, 2.500000000000000000, 1000.000000000000000 ) ) ;
#38 = LINE ( 'NONE', #37, #149 ) ;
#39 = DIRECTION ( 'NONE',  ( -1.000000000000000000, 4.336808689942017700E-017, -0.0000000000000000000 ) ) ;
#40 = CARTESIAN_POINT ( 'NONE',  ( -5.000000000000000000, 2.500000000000000400, -1000.000000000000000 ) ) ;
#41 = LINE ( 'NONE', #40, #159 ) ;
#42 = DIRECTION ( 'NONE',  ( -1.000000000000000000, 4.336808689942017700E-017, -0.0000000000000000000 ) ) ;
#43 = CARTESIAN_POINT ( 'NONE',  ( -5.000000000000000000, 2.500000000000000400, 1000.000000000000000 ) ) ;
#44 = LINE ( 'NONE', #43, #69 ) ;
#45 = DIRECTION ( 'NONE',  ( 1.000000000000000000, 4.336808689942017100E-017, 0.0000000000000000000 ) ) ;
#46 = CARTESIAN_POINT ( 'NONE',  ( -5.000000000000000000, -2.500000000000000400, -1000.000000000000000 ) ) ;
#47 = LINE ( 'NONE', #46, #150 ) ;
#48 = DIRECTION ( 'NONE',  ( -0.0000000000000000000, -0.0000000000000000000, -1.000000000000000000 ) ) ;
#49 = CARTESIAN_POINT ( 'NONE',  ( -5.000000000000000000, 2.500000000000000400, 1000.000000000000000 ) ) ;
#50 = LINE ( 'NONE', #49, #125 ) ;
#51 = PLANE ( 'NONE',  #163 ) ;
#52 = DIRECTION ( 'NONE',  ( -0.0000000000000000000, -0.0000000000000000000, -1.000000000000000000 ) ) ;
#53 = CARTESIAN_POINT ( 'NONE',  ( 5.000000000000000900, -2.500000000000000000, 1000.000000000000000 ) ) ;
#54 = APPLICATION_CONTEXT ( 'configuration controlled 3d designs of mechanical parts and assemblies' ) ;
#55 = EDGE_CURVE ( 'NONE', #214, #212, #237, .T. ) ;
#56 = EDGE_CURVE ( 'NONE', #209, #236, #50, .T. ) ;
#57 = EDGE_CURVE ( 'NONE', #215, #212, #47, .T. ) ;
#58 = COORDINATED_UNIVERSAL_TIME_OFFSET ( 9, 0, .AHEAD. ) ;
#59 = CALENDAR_DATE ( 2013, 13, 5 ) ;
#60 = CC_DESIGN_APPROVAL ( #174, ( #198 ) ) ;
#61 = SECURITY_CLASSIFICATION ( '', '', #115 ) ;
#62 = COORDINATED_UNIVERSAL_TIME_OFFSET ( 9, 0, .AHEAD. ) ;
#63 = CALENDAR_DATE ( 2013, 13, 5 ) ;
#64 = APPROVAL_PERSON_ORGANIZATION ( #120, #136, #122 ) ;
#65 = PRODUCT ( 'sone3D', 'sone3D', '', ( #93 ) ) ;
#66 = PERSON ( 'UNSPECIFIED', 'UNSPECIFIED', 'UNSPECIFIED', ('UNSPECIFIED'), ('UNSPECIFIED'), ('UNSPECIFIED') ) ;
#67 = ADVANCED_BREP_SHAPE_REPRESENTATION ( 'sone3D', ( #128, #170 ), #86 ) ;
#68 = UNCERTAINTY_MEASURE_WITH_UNIT (LENGTH_MEASURE( 1.000000000000000100E-005 ), #178, 'distance_accuracy_value', 'NONE');
#69 = VECTOR ( 'NONE', #42, 1000.000000000000000 ) ;
#70 = APPLICATION_CONTEXT ( 'configuration controlled 3d designs of mechanical parts and assemblies' ) ;
#71 = EDGE_CURVE ( 'NONE', #210, #209, #44, .T. ) ;
#72 = EDGE_CURVE ( 'NONE', #213, #236, #41, .T. ) ;
#73 = EDGE_CURVE ( 'NONE', #214, #210, #38, .T. ) ;
#74 = EDGE_CURVE ( 'NONE', #209, #211, #35, .T. ) ;
#75 = ADVANCED_FACE ( 'NONE', ( #164 ), #51, .F. ) ;
#76 = ADVANCED_FACE ( 'NONE', ( #129 ), #29, .F. ) ;
#77 = ADVANCED_FACE ( 'NONE', ( #144 ), #25, .T. ) ;
#78 = ADVANCED_FACE ( 'NONE', ( #142 ), #21, .F. ) ;
#79 = CC_DESIGN_PERSON_AND_ORGANIZATION_ASSIGNMENT ( #102, #103, ( #154 ) ) ;
#80 = ADVANCED_FACE ( 'NONE', ( #145 ), #17, .F. ) ;
#81 = EDGE_LOOP ( 'NONE', ( #230, #232, #231, #233 ) ) ;
#82 = EDGE_LOOP ( 'NONE', ( #206, #207, #208, #204 ) ) ;
#83 = EDGE_LOOP ( 'NONE', ( #225, #226, #227, #223 ) ) ;
#84 = EDGE_LOOP ( 'NONE', ( #221, #222, #220, #224 ) ) ;
#85 = EDGE_LOOP ( 'NONE', ( #234, #228, #235, #219 ) ) ;
#86 =( GEOMETRIC_REPRESENTATION_CONTEXT ( 3 ) GLOBAL_UNCERTAINTY_ASSIGNED_CONTEXT ( ( #68 ) ) GLOBAL_UNIT_ASSIGNED_CONTEXT ( ( #178, #87, #203 ) ) REPRESENTATION_CONTEXT ( 'NONE', 'WORKASPACE' ) );
#87 =( NAMED_UNIT ( * ) PLANE_ANGLE_UNIT ( ) SI_UNIT ( $, .RADIAN. ) );
#88 = APPLICATION_PROTOCOL_DEFINITION ( 'international standard', 'config_control_design', 1994, #70 ) ;
#89 = CARTESIAN_POINT ( 'NONE',  ( 0.0000000000000000000, 0.0000000000000000000, 0.0000000000000000000 ) ) ;
#90 = DIRECTION ( 'NONE',  ( 0.0000000000000000000, 0.0000000000000000000, 1.000000000000000000 ) ) ;
#91 = DIRECTION ( 'NONE',  ( 1.000000000000000000, 0.0000000000000000000, 0.0000000000000000000 ) ) ;
#92 = SHAPE_DEFINITION_REPRESENTATION ( #127, #67 ) ;
#93 = MECHANICAL_CONTEXT ( 'NONE', #70, 'mechanical' ) ;
#94 = PERSON_AND_ORGANIZATION ( #66, #171 ) ;
#95 = PERSON_AND_ORGANIZATION_ROLE ( 'design_owner' ) ;
#96 = APPLICATION_PROTOCOL_DEFINITION ( 'international standard', 'config_control_design', 1994, #54 ) ;
#97 = PERSON_AND_ORGANIZATION ( #66, #171 ) ;
#98 = APPROVAL_STATUS ( 'not_yet_approved' ) ;
#99 = APPROVAL_ROLE ( '' ) ;
#100 = DATE_AND_TIME ( #194, #155 ) ;
#101 = APPROVAL_DATE_TIME ( #100, #153 ) ;
#102 = PERSON_AND_ORGANIZATION ( #66, #171 ) ;
#103 = PERSON_AND_ORGANIZATION_ROLE ( 'creator' ) ;
#104 = DATE_AND_TIME ( #197, #172 ) ;
#105 = DATE_TIME_ROLE ( 'creation_date' ) ;
#106 = PERSON_AND_ORGANIZATION ( #66, #171 ) ;
#107 = APPROVAL_STATUS ( 'not_yet_approved' ) ;
#108 = APPROVAL_ROLE ( '' ) ;
#109 = DATE_AND_TIME ( #59, #175 ) ;
#110 = APPROVAL_DATE_TIME ( #109, #174 ) ;
#111 = PERSON_AND_ORGANIZATION ( #66, #171 ) ;
#112 = PERSON_AND_ORGANIZATION_ROLE ( 'creator' ) ;
#113 = PERSON_AND_ORGANIZATION ( #66, #171 ) ;
#114 = PERSON_AND_ORGANIZATION_ROLE ( 'design_supplier' ) ;
#115 = SECURITY_CLASSIFICATION_LEVEL ( 'unclassified' ) ;
#116 = PERSON_AND_ORGANIZATION ( #66, #171 ) ;
#117 = PERSON_AND_ORGANIZATION_ROLE ( 'classification_officer' ) ;
#118 = DATE_AND_TIME ( #63, #134 ) ;
#119 = DATE_TIME_ROLE ( 'classification_date' ) ;
#120 = PERSON_AND_ORGANIZATION ( #66, #171 ) ;
#121 = APPROVAL_STATUS ( 'not_yet_approved' ) ;
#122 = APPROVAL_ROLE ( '' ) ;
#123 = DATE_AND_TIME ( #167, #137 ) ;
#124 = APPROVAL_DATE_TIME ( #123, #136 ) ;
#125 = VECTOR ( 'NONE', #48, 1000.000000000000000 ) ;
#126 = DESIGN_CONTEXT ( 'detailed design', #54, 'design' ) ;
#127 = PRODUCT_DEFINITION_SHAPE ( 'NONE', 'NONE',  #154 ) ;
#128 = MANIFOLD_SOLID_BREP ( 'ÎÞ½ - µoµ1', #165 ) ;
#129 = FACE_OUTER_BOUND ( 'NONE', #84, .T. ) ;
#130 = ADVANCED_FACE ( 'NONE', ( #1 ), #13, .F. ) ;
#131 = EDGE_CURVE ( 'NONE', #236, #215, #9, .T. ) ;
#132 = EDGE_CURVE ( 'NONE', #211, #215, #5, .T. ) ;
#133 = CC_DESIGN_PERSON_AND_ORGANIZATION_ASSIGNMENT ( #116, #117, ( #61 ) ) ;
#134 = LOCAL_TIME ( 10, 55, 44.00000000000000000, #62 ) ;
#135 = CC_DESIGN_DATE_AND_TIME_ASSIGNMENT ( #118, #119, ( #61 ) ) ;
#136 = APPROVAL ( #121, 'UNSPECIFIED' ) ;
#137 = LOCAL_TIME ( 10, 55, 44.00000000000000000, #166 ) ;
#138 = PRODUCT_RELATED_PRODUCT_CATEGORY ( 'detail', '', ( #65 ) ) ;
#139 = CARTESIAN_POINT ( 'NONE',  ( -5.000000000000000000, 2.500000000000000400, -1000.000000000000000 ) ) ;
#140 = CARTESIAN_POINT ( 'NONE',  ( -5.000000000000000000, -2.500000000000000400, -1000.000000000000000 ) ) ;
#141 = CARTESIAN_POINT ( 'NONE',  ( 5.000000000000000900, -2.500000000000000000, 1000.000000000000000 ) ) ;
#142 = FACE_OUTER_BOUND ( 'NONE', #85, .T. ) ;
#143 = AXIS2_PLACEMENT_3D ( 'NONE', #24, #23, #22 ) ;
#144 = FACE_OUTER_BOUND ( 'NONE', #83, .T. ) ;
#145 = FACE_OUTER_BOUND ( 'NONE', #81, .T. ) ;
#146 = AXIS2_PLACEMENT_3D ( 'NONE', #20, #19, #18 ) ;
#147 = APPROVAL_PERSON_ORGANIZATION ( #97, #153, #99 ) ;
#148 = AXIS2_PLACEMENT_3D ( 'NONE', #16, #15, #14 ) ;
#149 = VECTOR ( 'NONE', #36, 1000.000000000000000 ) ;
#150 = VECTOR ( 'NONE', #45, 1000.000000000000000 ) ;
#151 = VECTOR ( 'NONE', #184, 1000.000000000000000 ) ;
#152 = CC_DESIGN_PERSON_AND_ORGANIZATION_ASSIGNMENT ( #94, #95, ( #65 ) ) ;
#153 = APPROVAL ( #98, 'UNSPECIFIED' ) ;
#154 = PRODUCT_DEFINITION ( 'UNKNOWN', '', #198, #126 ) ;
#155 = LOCAL_TIME ( 10, 55, 44.00000000000000000, #193 ) ;
#156 = VECTOR ( 'NONE', #180, 1000.000000000000000 ) ;
#157 = VECTOR ( 'NONE', #191, 1000.000000000000000 ) ;
#158 = VECTOR ( 'NONE', #192, 1000.000000000000000 ) ;
#159 = VECTOR ( 'NONE', #39, 1000.000000000000000 ) ;
#160 = AXIS2_PLACEMENT_3D ( 'NONE', #28, #27, #26 ) ;
#161 = EDGE_CURVE ( 'NONE', #210, #213, #189, .T. ) ;
#162 = VECTOR ( 'NONE', #52, 1000.000000000000000 ) ;
#163 = AXIS2_PLACEMENT_3D ( 'NONE', #32, #31, #30 ) ;
#164 = FACE_OUTER_BOUND ( 'NONE', #82, .T. ) ;
#165 = CLOSED_SHELL ( 'NONE', ( #130, #80, #78, #76, #77, #75 ) ) ;
#166 = COORDINATED_UNIVERSAL_TIME_OFFSET ( 9, 0, .AHEAD. ) ;
#167 = CALENDAR_DATE ( 2013, 13, 5 ) ;
#168 = CC_DESIGN_APPROVAL ( #136, ( #61 ) ) ;
#169 = CC_DESIGN_SECURITY_CLASSIFICATION ( #61, ( #198 ) ) ;
#170 = AXIS2_PLACEMENT_3D ( 'NONE', #89, #90, #91 ) ;
#171 = ORGANIZATION ( 'UNSPECIFIED', 'UNSPECIFIED', '' ) ;
#172 = LOCAL_TIME ( 10, 55, 44.00000000000000000, #196 ) ;
#173 = CC_DESIGN_DATE_AND_TIME_ASSIGNMENT ( #104, #105, ( #154 ) ) ;
#174 = APPROVAL ( #107, 'UNSPECIFIED' ) ;
#175 = LOCAL_TIME ( 10, 55, 44.00000000000000000, #58 ) ;
#176 = CC_DESIGN_PERSON_AND_ORGANIZATION_ASSIGNMENT ( #111, #112, ( #198 ) ) ;
#177 = CC_DESIGN_PERSON_AND_ORGANIZATION_ASSIGNMENT ( #113, #114, ( #198 ) ) ;
#178 =( LENGTH_UNIT ( ) NAMED_UNIT ( * ) SI_UNIT ( .MILLI., .METRE. ) );
#179 = CARTESIAN_POINT ( 'NONE',  ( 5.000000000000000000, 2.500000000000000000, -1000.000000000000000 ) ) ;
#180 = DIRECTION ( 'NONE',  ( -0.0000000000000000000, -0.0000000000000000000, -1.000000000000000000 ) ) ;
#181 = CARTESIAN_POINT ( 'NONE',  ( 5.000000000000000000, 2.500000000000000000, -1000.000000000000000 ) ) ;
#182 = CARTESIAN_POINT ( 'NONE',  ( -5.000000000000000000, -2.500000000000000400, 1000.000000000000000 ) ) ;
#183 = CARTESIAN_POINT ( 'NONE',  ( 5.000000000000000900, -2.500000000000000000, -1000.000000000000000 ) ) ;
#184 = DIRECTION ( 'NONE',  ( 1.000000000000000000, 4.336808689942017100E-017, 0.0000000000000000000 ) ) ;
#185 = CARTESIAN_POINT ( 'NONE',  ( 5.000000000000000000, 2.500000000000000000, 1000.000000000000000 ) ) ;
#186 = LINE ( 'NONE', #187, #151 ) ;
#187 = CARTESIAN_POINT ( 'NONE',  ( -5.000000000000000000, -2.500000000000000400, 1000.000000000000000 ) ) ;
#188 = CARTESIAN_POINT ( 'NONE',  ( 5.000000000000000000, 2.500000000000000000, 1000.000000000000000 ) ) ;
#189 = LINE ( 'NONE', #188, #157 ) ;
#190 = LINE ( 'NONE', #179, #158 ) ;
#191 = DIRECTION ( 'NONE',  ( -0.0000000000000000000, -0.0000000000000000000, -1.000000000000000000 ) ) ;
#192 = DIRECTION ( 'NONE',  ( -1.734723475976807100E-016, 1.000000000000000000, -0.0000000000000000000 ) ) ;
#193 = COORDINATED_UNIVERSAL_TIME_OFFSET ( 9, 0, .AHEAD. ) ;
#194 = CALENDAR_DATE ( 2013, 13, 5 ) ;
#195 = CC_DESIGN_APPROVAL ( #153, ( #154 ) ) ;
#196 = COORDINATED_UNIVERSAL_TIME_OFFSET ( 9, 0, .AHEAD. ) ;
#197 = CALENDAR_DATE ( 2013, 13, 5 ) ;
#198 = PRODUCT_DEFINITION_FORMATION_WITH_SPECIFIED_SOURCE ( 'ANY', '', #65, .NOT_KNOWN. ) ;
#199 = APPROVAL_PERSON_ORGANIZATION ( #106, #174, #108 ) ;
#200 = EDGE_CURVE ( 'NONE', #212, #213, #190, .T. ) ;
#201 = EDGE_CURVE ( 'NONE', #211, #214, #186, .T. ) ;
#202 = VECTOR ( 'NONE', #33, 1000.000000000000000 ) ;
#203 =( NAMED_UNIT ( * ) SI_UNIT ( $, .STERADIAN. ) SOLID_ANGLE_UNIT ( ) );
#204 = ORIENTED_EDGE ( 'NONE', *, *, #57, .F. ) ;
#205 = EDGE_LOOP ( 'NONE', ( #229, #217, #216, #218 ) ) ;
#206 = ORIENTED_EDGE ( 'NONE', *, *, #131, .F. ) ;
#207 = ORIENTED_EDGE ( 'NONE', *, *, #72, .F. ) ;
#208 = ORIENTED_EDGE ( 'NONE', *, *, #200, .F. ) ;
#209 = VERTEX_POINT ( 'NONE', #6 ) ;
#210 = VERTEX_POINT ( 'NONE', #185 ) ;
#211 = VERTEX_POINT ( 'NONE', #182 ) ;
#212 = VERTEX_POINT ( 'NONE', #183 ) ;
#213 = VERTEX_POINT ( 'NONE', #181 ) ;
#214 = VERTEX_POINT ( 'NONE', #141 ) ;
#215 = VERTEX_POINT ( 'NONE', #140 ) ;
#216 = ORIENTED_EDGE ( 'NONE', *, *, #74, .F. ) ;
#217 = ORIENTED_EDGE ( 'NONE', *, *, #132, .F. ) ;
#218 = ORIENTED_EDGE ( 'NONE', *, *, #56, .T. ) ;
#219 = ORIENTED_EDGE ( 'NONE', *, *, #55, .T. ) ;
#220 = ORIENTED_EDGE ( 'NONE', *, *, #71, .F. ) ;
#221 = ORIENTED_EDGE ( 'NONE', *, *, #72, .T. ) ;
#222 = ORIENTED_EDGE ( 'NONE', *, *, #56, .F. ) ;
#223 = ORIENTED_EDGE ( 'NONE', *, *, #71, .T. ) ;
#224 = ORIENTED_EDGE ( 'NONE', *, *, #161, .T. ) ;
#225 = ORIENTED_EDGE ( 'NONE', *, *, #74, .T. ) ;
#226 = ORIENTED_EDGE ( 'NONE', *, *, #201, .T. ) ;
#227 = ORIENTED_EDGE ( 'NONE', *, *, #73, .T. ) ;
#228 = ORIENTED_EDGE ( 'NONE', *, *, #161, .F. ) ;
#229 = ORIENTED_EDGE ( 'NONE', *, *, #131, .T. ) ;
#230 = ORIENTED_EDGE ( 'NONE', *, *, #57, .T. ) ;
#231 = ORIENTED_EDGE ( 'NONE', *, *, #201, .F. ) ;
#232 = ORIENTED_EDGE ( 'NONE', *, *, #55, .F. ) ;
#233 = ORIENTED_EDGE ( 'NONE', *, *, #132, .T. ) ;
#234 = ORIENTED_EDGE ( 'NONE', *, *, #200, .T. ) ;
#235 = ORIENTED_EDGE ( 'NONE', *, *, #73, .F. ) ;
#236 = VERTEX_POINT ( 'NONE', #139 ) ;
#237 = LINE ( 'NONE', #53, #162 ) ;
ENDSEC;
END-ISO-10303-21;
