ISO-10303-21;
HEADER;
FILE_DESCRIPTION (( 'STEP AP203' ),
    '1' );
FILE_NAME ('sone3D.STEP',
    '2013-05-13T01:52:14',
    ( '' ),
    ( '' ),
    'SwSTEP 2.0',
    'SolidWorks 2012',
    '' );
FILE_SCHEMA (( 'CONFIG_CONTROL_DESIGN' ));
ENDSEC;

DATA;
#1 = AXIS2_PLACEMENT_3D ( 'NONE', #143, #144, #145 ) ;
#2 = AXIS2_PLACEMENT_3D ( 'NONE', #139, #140, #141 ) ;
#3 = MECHANICAL_CONTEXT ( 'NONE', #86, 'mechanical' ) ;
#4 = PERSON_AND_ORGANIZATION ( #84, #172 ) ;
#5 = PERSON_AND_ORGANIZATION_ROLE ( 'design_owner' ) ;
#6 = APPLICATION_PROTOCOL_DEFINITION ( 'international standard', 'config_control_design', 1994, #87 ) ;
#7 = PERSON_AND_ORGANIZATION ( #84, #172 ) ;
#8 = APPROVAL_STATUS ( 'not_yet_approved' ) ;
#9 = APPROVAL_ROLE ( '' ) ;
#10 = DATE_AND_TIME ( #175, #52 ) ;
#11 = APPROVAL_DATE_TIME ( #10, #51 ) ;
#12 = PERSON_AND_ORGANIZATION ( #84, #172 ) ;
#13 = PERSON_AND_ORGANIZATION_ROLE ( 'creator' ) ;
#14 = DATE_AND_TIME ( #178, #54 ) ;
#15 = DATE_TIME_ROLE ( 'creation_date' ) ;
#16 = PERSON_AND_ORGANIZATION ( #84, #172 ) ;
#17 = APPROVAL_STATUS ( 'not_yet_approved' ) ;
#18 = APPROVAL_ROLE ( '' ) ;
#19 = DATE_AND_TIME ( #182, #57 ) ;
#20 = APPROVAL_DATE_TIME ( #19, #56 ) ;
#21 = PERSON_AND_ORGANIZATION ( #84, #172 ) ;
#22 = PERSON_AND_ORGANIZATION_ROLE ( 'creator' ) ;
#23 = PERSON_AND_ORGANIZATION ( #84, #172 ) ;
#24 = PERSON_AND_ORGANIZATION_ROLE ( 'design_supplier' ) ;
#25 = SECURITY_CLASSIFICATION_LEVEL ( 'unclassified' ) ;
#26 = PERSON_AND_ORGANIZATION ( #84, #172 ) ;
#27 = PERSON_AND_ORGANIZATION_ROLE ( 'classification_officer' ) ;
#28 = DATE_AND_TIME ( #45, #61 ) ;
#29 = DATE_TIME_ROLE ( 'classification_date' ) ;
#30 = PERSON_AND_ORGANIZATION ( #84, #172 ) ;
#31 = APPROVAL_STATUS ( 'not_yet_approved' ) ;
#32 = APPROVAL_ROLE ( '' ) ;
#33 = DATE_AND_TIME ( #48, #236 ) ;
#34 = APPROVAL_DATE_TIME ( #33, #63 ) ;
#35 = DESIGN_CONTEXT ( 'detailed design', #87, 'design' ) ;
#36 = PRODUCT_DEFINITION_SHAPE ( 'NONE', 'NONE',  #188 ) ;
#37 = PRODUCT ( 'sone3D', 'sone3D', '', ( #3 ) ) ;
#38 = VECTOR ( 'NONE', #171, 1000.000000000000000 ) ;
#39 = VECTOR ( 'NONE', #192, 1000.000000000000000 ) ;
#40 = VECTOR ( 'NONE', #195, 1000.000000000000000 ) ;
#41 = VECTOR ( 'NONE', #198, 1000.000000000000000 ) ;
#42 = VECTOR ( 'NONE', #201, 1000.000000000000000 ) ;
#43 = VECTOR ( 'NONE', #204, 1000.000000000000000 ) ;
#44 = COORDINATED_UNIVERSAL_TIME_OFFSET ( 9, 0, .AHEAD. ) ;
#45 = CALENDAR_DATE ( 2013, 13, 5 ) ;
#46 = APPROVAL_PERSON_ORGANIZATION ( #30, #63, #32 ) ;
#47 = COORDINATED_UNIVERSAL_TIME_OFFSET ( 9, 0, .AHEAD. ) ;
#48 = CALENDAR_DATE ( 2013, 13, 5 ) ;
#49 = CC_DESIGN_APPROVAL ( #63, ( #184 ) ) ;
#50 = CC_DESIGN_SECURITY_CLASSIFICATION ( #184, ( #179 ) ) ;
#51 = APPROVAL ( #8, 'UNSPECIFIED' ) ;
#52 = LOCAL_TIME ( 10, 52, 14.00000000000000000, #174 ) ;
#53 = CC_DESIGN_PERSON_AND_ORGANIZATION_ASSIGNMENT ( #12, #13, ( #188 ) ) ;
#54 = LOCAL_TIME ( 10, 52, 14.00000000000000000, #177 ) ;
#55 = CC_DESIGN_DATE_AND_TIME_ASSIGNMENT ( #14, #15, ( #188 ) ) ;
#56 = APPROVAL ( #17, 'UNSPECIFIED' ) ;
#57 = LOCAL_TIME ( 10, 52, 14.00000000000000000, #181 ) ;
#58 = CC_DESIGN_PERSON_AND_ORGANIZATION_ASSIGNMENT ( #21, #22, ( #179 ) ) ;
#59 = CC_DESIGN_PERSON_AND_ORGANIZATION_ASSIGNMENT ( #23, #24, ( #179 ) ) ;
#60 = CC_DESIGN_PERSON_AND_ORGANIZATION_ASSIGNMENT ( #26, #27, ( #184 ) ) ;
#61 = LOCAL_TIME ( 10, 52, 14.00000000000000000, #44 ) ;
#62 = CC_DESIGN_DATE_AND_TIME_ASSIGNMENT ( #28, #29, ( #184 ) ) ;
#63 = APPROVAL ( #31, 'UNSPECIFIED' ) ;
#64 = ORIENTED_EDGE ( 'NONE', *, *, #226, .T. ) ;
#65 = ORIENTED_EDGE ( 'NONE', *, *, #219, .T. ) ;
#66 = ORIENTED_EDGE ( 'NONE', *, *, #222, .T. ) ;
#67 = ORIENTED_EDGE ( 'NONE', *, *, #223, .F. ) ;
#68 = ORIENTED_EDGE ( 'NONE', *, *, #217, .F. ) ;
#69 = ORIENTED_EDGE ( 'NONE', *, *, #213, .F. ) ;
#70 = ORIENTED_EDGE ( 'NONE', *, *, #221, .F. ) ;
#71 = ORIENTED_EDGE ( 'NONE', *, *, #217, .T. ) ;
#72 = ORIENTED_EDGE ( 'NONE', *, *, #81, .F. ) ;
#73 = ORIENTED_EDGE ( 'NONE', *, *, #218, .T. ) ;
#74 = ORIENTED_EDGE ( 'NONE', *, *, #221, .T. ) ;
#75 = ORIENTED_EDGE ( 'NONE', *, *, #222, .F. ) ;
#76 = ORIENTED_EDGE ( 'NONE', *, *, #220, .F. ) ;
#77 = ORIENTED_EDGE ( 'NONE', *, *, #81, .T. ) ;
#78 = ORIENTED_EDGE ( 'NONE', *, *, #214, .F. ) ;
#79 = ORIENTED_EDGE ( 'NONE', *, *, #213, .T. ) ;
#80 = EDGE_LOOP ( 'NONE', ( #116, #72, #98, #73 ) ) ;
#81 = EDGE_CURVE ( 'NONE', #100, #93, #102, .T. ) ;
#82 = ORIENTED_EDGE ( 'NONE', *, *, #220, .T. ) ;
#83 = UNCERTAINTY_MEASURE_WITH_UNIT (LENGTH_MEASURE( 1.000000000000000100E-005 ), #205, 'distance_accuracy_value', 'NONE');
#84 = PERSON ( 'UNSPECIFIED', 'UNSPECIFIED', 'UNSPECIFIED', ('UNSPECIFIED'), ('UNSPECIFIED'), ('UNSPECIFIED') ) ;
#85 = ADVANCED_BREP_SHAPE_REPRESENTATION ( 'sone3D', ( #227, #111 ), #119 ) ;
#86 = APPLICATION_CONTEXT ( 'configuration controlled 3d designs of mechanical parts and assemblies' ) ;
#87 = APPLICATION_CONTEXT ( 'configuration controlled 3d designs of mechanical parts and assemblies' ) ;
#88 = EDGE_LOOP ( 'NONE', ( #74, #76, #75, #77 ) ) ;
#89 = EDGE_LOOP ( 'NONE', ( #71, #114, #113, #115 ) ) ;
#90 = EDGE_LOOP ( 'NONE', ( #79, #117, #78, #82 ) ) ;
#91 = EDGE_LOOP ( 'NONE', ( #64, #65, #66, #118 ) ) ;
#92 = EDGE_LOOP ( 'NONE', ( #68, #69, #70, #67 ) ) ;
#93 = VERTEX_POINT ( 'NONE', #121 ) ;
#94 = VERTEX_POINT ( 'NONE', #122 ) ;
#95 = VERTEX_POINT ( 'NONE', #123 ) ;
#96 = VERTEX_POINT ( 'NONE', #124 ) ;
#97 = VERTEX_POINT ( 'NONE', #125 ) ;
#98 = ORIENTED_EDGE ( 'NONE', *, *, #219, .F. ) ;
#99 = VERTEX_POINT ( 'NONE', #120 ) ;
#100 = VERTEX_POINT ( 'NONE', #126 ) ;
#101 = VERTEX_POINT ( 'NONE', #127 ) ;
#102 = LINE ( 'NONE', #103, #234 ) ;
#103 = CARTESIAN_POINT ( 'NONE',  ( 2.500000000000000000, -1.500000000000000000, 1000.000000000000000 ) ) ;
#104 = DIRECTION ( 'NONE',  ( -0.0000000000000000000, -0.0000000000000000000, -1.000000000000000000 ) ) ;
#105 = VECTOR ( 'NONE', #148, 1000.000000000000000 ) ;
#106 = AXIS2_PLACEMENT_3D ( 'NONE', #157, #158, #159 ) ;
#107 = VECTOR ( 'NONE', #152, 1000.000000000000000 ) ;
#108 = AXIS2_PLACEMENT_3D ( 'NONE', #153, #154, #155 ) ;
#109 = FACE_OUTER_BOUND ( 'NONE', #92, .T. ) ;
#110 = VECTOR ( 'NONE', #162, 1000.000000000000000 ) ;
#111 = AXIS2_PLACEMENT_3D ( 'NONE', #209, #210, #211 ) ;
#112 = VECTOR ( 'NONE', #165, 1000.000000000000000 ) ;
#113 = ORIENTED_EDGE ( 'NONE', *, *, #226, .F. ) ;
#114 = ORIENTED_EDGE ( 'NONE', *, *, #218, .F. ) ;
#115 = ORIENTED_EDGE ( 'NONE', *, *, #225, .T. ) ;
#116 = ORIENTED_EDGE ( 'NONE', *, *, #223, .T. ) ;
#117 = ORIENTED_EDGE ( 'NONE', *, *, #225, .F. ) ;
#118 = ORIENTED_EDGE ( 'NONE', *, *, #214, .T. ) ;
#119 =( GEOMETRIC_REPRESENTATION_CONTEXT ( 3 ) GLOBAL_UNCERTAINTY_ASSIGNED_CONTEXT ( ( #83 ) ) GLOBAL_UNIT_ASSIGNED_CONTEXT ( ( #205, #206, #207 ) ) REPRESENTATION_CONTEXT ( 'NONE', 'WORKASPACE' ) );
#120 = CARTESIAN_POINT ( 'NONE',  ( 2.500000000000000000, 1.500000000000000000, -1000.000000000000000 ) ) ;
#121 = CARTESIAN_POINT ( 'NONE',  ( 2.500000000000000000, -1.500000000000000000, -1000.000000000000000 ) ) ;
#122 = CARTESIAN_POINT ( 'NONE',  ( -2.500000000000000000, -1.500000000000000200, -1000.000000000000000 ) ) ;
#123 = CARTESIAN_POINT ( 'NONE',  ( -2.500000000000000000, -1.500000000000000200, 1000.000000000000000 ) ) ;
#124 = CARTESIAN_POINT ( 'NONE',  ( -2.500000000000000000, 1.500000000000000200, 1000.000000000000000 ) ) ;
#125 = CARTESIAN_POINT ( 'NONE',  ( -2.500000000000000000, 1.500000000000000200, -1000.000000000000000 ) ) ;
#126 = CARTESIAN_POINT ( 'NONE',  ( 2.500000000000000000, -1.500000000000000000, 1000.000000000000000 ) ) ;
#127 = CARTESIAN_POINT ( 'NONE',  ( 2.500000000000000000, 1.500000000000000000, 1000.000000000000000 ) ) ;
#128 = PLANE ( 'NONE',  #235 ) ;
#129 = CARTESIAN_POINT ( 'NONE',  ( 2.500000000000000000, 1.500000000000000000, 1000.000000000000000 ) ) ;
#130 = DIRECTION ( 'NONE',  ( -1.000000000000000000, 0.0000000000000000000, 0.0000000000000000000 ) ) ;
#131 = DIRECTION ( 'NONE',  ( 0.0000000000000000000, 0.0000000000000000000, 1.000000000000000000 ) ) ;
#132 = PLANE ( 'NONE',  #231 ) ;
#133 = CARTESIAN_POINT ( 'NONE',  ( -2.500000000000000000, 1.500000000000000200, 1000.000000000000000 ) ) ;
#134 = DIRECTION ( 'NONE',  ( -4.336808689942017700E-017, -1.000000000000000000, 0.0000000000000000000 ) ) ;
#135 = DIRECTION ( 'NONE',  ( 1.000000000000000000, -4.336808689942017700E-017, 0.0000000000000000000 ) ) ;
#136 = PLANE ( 'NONE',  #2 ) ;
#137 = FACE_OUTER_BOUND ( 'NONE', #89, .T. ) ;
#138 = VECTOR ( 'NONE', #168, 1000.000000000000000 ) ;
#139 = CARTESIAN_POINT ( 'NONE',  ( -2.500000000000000000, -1.500000000000000200, 1000.000000000000000 ) ) ;
#140 = DIRECTION ( 'NONE',  ( -4.336808689942017700E-017, 1.000000000000000000, 0.0000000000000000000 ) ) ;
#141 = DIRECTION ( 'NONE',  ( -1.000000000000000000, -4.336808689942017700E-017, 0.0000000000000000000 ) ) ;
#142 = PLANE ( 'NONE',  #1 ) ;
#143 = CARTESIAN_POINT ( 'NONE',  ( -2.500000000000000000, 1.500000000000000200, 1000.000000000000000 ) ) ;
#144 = DIRECTION ( 'NONE',  ( 1.000000000000000000, 0.0000000000000000000, -0.0000000000000000000 ) ) ;
#145 = DIRECTION ( 'NONE',  ( -0.0000000000000000000, 0.0000000000000000000, -1.000000000000000000 ) ) ;
#146 = LINE ( 'NONE', #147, #105 ) ;
#147 = CARTESIAN_POINT ( 'NONE',  ( -2.500000000000000000, 1.500000000000000200, -1000.000000000000000 ) ) ;
#148 = DIRECTION ( 'NONE',  ( -1.000000000000000000, 4.336808689942017700E-017, -0.0000000000000000000 ) ) ;
#149 = PLANE ( 'NONE',  #108 ) ;
#150 = LINE ( 'NONE', #151, #107 ) ;
#151 = CARTESIAN_POINT ( 'NONE',  ( -2.500000000000000000, 1.500000000000000200, 1000.000000000000000 ) ) ;
#152 = DIRECTION ( 'NONE',  ( -1.000000000000000000, 4.336808689942017700E-017, -0.0000000000000000000 ) ) ;
#153 = CARTESIAN_POINT ( 'NONE',  ( 0.0000000000000000000, 0.0000000000000000000, 1000.000000000000000 ) ) ;
#154 = DIRECTION ( 'NONE',  ( -0.0000000000000000000, 0.0000000000000000000, 1.000000000000000000 ) ) ;
#155 = DIRECTION ( 'NONE',  ( 1.000000000000000000, 0.0000000000000000000, 0.0000000000000000000 ) ) ;
#156 = PLANE ( 'NONE',  #106 ) ;
#157 = CARTESIAN_POINT ( 'NONE',  ( 0.0000000000000000000, 0.0000000000000000000, -1000.000000000000000 ) ) ;
#158 = DIRECTION ( 'NONE',  ( -0.0000000000000000000, 0.0000000000000000000, 1.000000000000000000 ) ) ;
#159 = DIRECTION ( 'NONE',  ( 1.000000000000000000, 0.0000000000000000000, 0.0000000000000000000 ) ) ;
#160 = LINE ( 'NONE', #161, #110 ) ;
#161 = CARTESIAN_POINT ( 'NONE',  ( -2.500000000000000000, 1.500000000000000200, -1000.000000000000000 ) ) ;
#162 = DIRECTION ( 'NONE',  ( 0.0000000000000000000, -1.000000000000000000, 0.0000000000000000000 ) ) ;
#163 = LINE ( 'NONE', #164, #112 ) ;
#164 = CARTESIAN_POINT ( 'NONE',  ( -2.500000000000000000, -1.500000000000000200, 1000.000000000000000 ) ) ;
#165 = DIRECTION ( 'NONE',  ( -0.0000000000000000000, -0.0000000000000000000, -1.000000000000000000 ) ) ;
#166 = LINE ( 'NONE', #167, #138 ) ;
#167 = CARTESIAN_POINT ( 'NONE',  ( -2.500000000000000000, -1.500000000000000200, 1000.000000000000000 ) ) ;
#168 = DIRECTION ( 'NONE',  ( 1.000000000000000000, 4.336808689942017700E-017, 0.0000000000000000000 ) ) ;
#169 = LINE ( 'NONE', #170, #38 ) ;
#170 = CARTESIAN_POINT ( 'NONE',  ( 2.500000000000000000, 1.500000000000000000, 1000.000000000000000 ) ) ;
#171 = DIRECTION ( 'NONE',  ( -0.0000000000000000000, -0.0000000000000000000, -1.000000000000000000 ) ) ;
#172 = ORGANIZATION ( 'UNSPECIFIED', 'UNSPECIFIED', '' ) ;
#173 = APPROVAL_PERSON_ORGANIZATION ( #7, #51, #9 ) ;
#174 = COORDINATED_UNIVERSAL_TIME_OFFSET ( 9, 0, .AHEAD. ) ;
#175 = CALENDAR_DATE ( 2013, 13, 5 ) ;
#176 = CC_DESIGN_APPROVAL ( #51, ( #188 ) ) ;
#177 = COORDINATED_UNIVERSAL_TIME_OFFSET ( 9, 0, .AHEAD. ) ;
#178 = CALENDAR_DATE ( 2013, 13, 5 ) ;
#179 = PRODUCT_DEFINITION_FORMATION_WITH_SPECIFIED_SOURCE ( 'ANY', '', #37, .NOT_KNOWN. ) ;
#180 = APPROVAL_PERSON_ORGANIZATION ( #16, #56, #18 ) ;
#181 = COORDINATED_UNIVERSAL_TIME_OFFSET ( 9, 0, .AHEAD. ) ;
#182 = CALENDAR_DATE ( 2013, 13, 5 ) ;
#183 = CC_DESIGN_APPROVAL ( #56, ( #179 ) ) ;
#184 = SECURITY_CLASSIFICATION ( '', '', #25 ) ;
#185 = ADVANCED_FACE ( 'NONE', ( #230 ), #128, .F. ) ;
#186 = ADVANCED_FACE ( 'NONE', ( #229 ), #132, .F. ) ;
#187 = ADVANCED_FACE ( 'NONE', ( #233 ), #136, .F. ) ;
#188 = PRODUCT_DEFINITION ( 'UNKNOWN', '', #179, #35 ) ;
#189 = ADVANCED_FACE ( 'NONE', ( #137 ), #142, .F. ) ;
#190 = LINE ( 'NONE', #191, #39 ) ;
#191 = CARTESIAN_POINT ( 'NONE',  ( 2.500000000000000000, 1.500000000000000000, -1000.000000000000000 ) ) ;
#192 = DIRECTION ( 'NONE',  ( -0.0000000000000000000, 1.000000000000000000, -0.0000000000000000000 ) ) ;
#193 = LINE ( 'NONE', #194, #40 ) ;
#194 = CARTESIAN_POINT ( 'NONE',  ( 2.500000000000000000, 1.500000000000000000, 1000.000000000000000 ) ) ;
#195 = DIRECTION ( 'NONE',  ( -0.0000000000000000000, 1.000000000000000000, -0.0000000000000000000 ) ) ;
#196 = LINE ( 'NONE', #197, #41 ) ;
#197 = CARTESIAN_POINT ( 'NONE',  ( -2.500000000000000000, -1.500000000000000200, -1000.000000000000000 ) ) ;
#198 = DIRECTION ( 'NONE',  ( 1.000000000000000000, 4.336808689942017700E-017, 0.0000000000000000000 ) ) ;
#199 = LINE ( 'NONE', #200, #42 ) ;
#200 = CARTESIAN_POINT ( 'NONE',  ( -2.500000000000000000, 1.500000000000000200, 1000.000000000000000 ) ) ;
#201 = DIRECTION ( 'NONE',  ( -0.0000000000000000000, -0.0000000000000000000, -1.000000000000000000 ) ) ;
#202 = LINE ( 'NONE', #203, #43 ) ;
#203 = CARTESIAN_POINT ( 'NONE',  ( -2.500000000000000000, 1.500000000000000200, 1000.000000000000000 ) ) ;
#204 = DIRECTION ( 'NONE',  ( 0.0000000000000000000, -1.000000000000000000, 0.0000000000000000000 ) ) ;
#205 =( LENGTH_UNIT ( ) NAMED_UNIT ( * ) SI_UNIT ( .MILLI., .METRE. ) );
#206 =( NAMED_UNIT ( * ) PLANE_ANGLE_UNIT ( ) SI_UNIT ( $, .RADIAN. ) );
#207 =( NAMED_UNIT ( * ) SI_UNIT ( $, .STERADIAN. ) SOLID_ANGLE_UNIT ( ) );
#208 = SHAPE_DEFINITION_REPRESENTATION ( #36, #85 ) ;
#209 = CARTESIAN_POINT ( 'NONE',  ( 0.0000000000000000000, 0.0000000000000000000, 0.0000000000000000000 ) ) ;
#210 = DIRECTION ( 'NONE',  ( 0.0000000000000000000, 0.0000000000000000000, 1.000000000000000000 ) ) ;
#211 = DIRECTION ( 'NONE',  ( 1.000000000000000000, 0.0000000000000000000, 0.0000000000000000000 ) ) ;
#212 = APPLICATION_PROTOCOL_DEFINITION ( 'international standard', 'config_control_design', 1994, #86 ) ;
#213 = EDGE_CURVE ( 'NONE', #99, #97, #146, .T. ) ;
#214 = EDGE_CURVE ( 'NONE', #101, #96, #150, .T. ) ;
#215 = ADVANCED_FACE ( 'NONE', ( #232 ), #149, .T. ) ;
#216 = ADVANCED_FACE ( 'NONE', ( #109 ), #156, .F. ) ;
#217 = EDGE_CURVE ( 'NONE', #97, #94, #160, .T. ) ;
#218 = EDGE_CURVE ( 'NONE', #95, #94, #163, .T. ) ;
#219 = EDGE_CURVE ( 'NONE', #95, #100, #166, .T. ) ;
#220 = EDGE_CURVE ( 'NONE', #101, #99, #169, .T. ) ;
#221 = EDGE_CURVE ( 'NONE', #93, #99, #190, .T. ) ;
#222 = EDGE_CURVE ( 'NONE', #100, #101, #193, .T. ) ;
#223 = EDGE_CURVE ( 'NONE', #94, #93, #196, .T. ) ;
#224 = CC_DESIGN_PERSON_AND_ORGANIZATION_ASSIGNMENT ( #4, #5, ( #37 ) ) ;
#225 = EDGE_CURVE ( 'NONE', #96, #97, #199, .T. ) ;
#226 = EDGE_CURVE ( 'NONE', #96, #95, #202, .T. ) ;
#227 = MANIFOLD_SOLID_BREP ( 'ÎÞ½ - µoµ1', #228 ) ;
#228 = CLOSED_SHELL ( 'NONE', ( #189, #187, #185, #186, #215, #216 ) ) ;
#229 = FACE_OUTER_BOUND ( 'NONE', #90, .T. ) ;
#230 = FACE_OUTER_BOUND ( 'NONE', #88, .T. ) ;
#231 = AXIS2_PLACEMENT_3D ( 'NONE', #133, #134, #135 ) ;
#232 = FACE_OUTER_BOUND ( 'NONE', #91, .T. ) ;
#233 = FACE_OUTER_BOUND ( 'NONE', #80, .T. ) ;
#234 = VECTOR ( 'NONE', #104, 1000.000000000000000 ) ;
#235 = AXIS2_PLACEMENT_3D ( 'NONE', #129, #130, #131 ) ;
#236 = LOCAL_TIME ( 10, 52, 14.00000000000000000, #47 ) ;
#237 = PRODUCT_RELATED_PRODUCT_CATEGORY ( 'detail', '', ( #37 ) ) ;
ENDSEC;
END-ISO-10303-21;
