ISO-10303-21;
HEADER;
FILE_DESCRIPTION (( 'STEP AP203' ),
    '1' );
FILE_NAME ('sone3D.STEP',
    '2013-05-13T01:54:13',
    ( '' ),
    ( '' ),
    'SwSTEP 2.0',
    'SolidWorks 2012',
    '' );
FILE_SCHEMA (( 'CONFIG_CONTROL_DESIGN' ));
ENDSEC;

DATA;
#1 = CALENDAR_DATE ( 2013, 13, 5 ) ;
#2 = APPROVAL_PERSON_ORGANIZATION ( #189, #86, #191 ) ;
#3 = COORDINATED_UNIVERSAL_TIME_OFFSET ( 9, 0, .AHEAD. ) ;
#4 = CALENDAR_DATE ( 2013, 13, 5 ) ;
#5 = CC_DESIGN_APPROVAL ( #86, ( #199 ) ) ;
#6 = CC_DESIGN_SECURITY_CLASSIFICATION ( #199, ( #194 ) ) ;
#7 = ORGANIZATION ( 'UNSPECIFIED', 'UNSPECIFIED', '' ) ;
#8 = APPROVAL_PERSON_ORGANIZATION ( #166, #23, #168 ) ;
#9 = COORDINATED_UNIVERSAL_TIME_OFFSET ( 9, 0, .AHEAD. ) ;
#10 = CALENDAR_DATE ( 2013, 13, 5 ) ;
#11 = CC_DESIGN_APPROVAL ( #23, ( #22 ) ) ;
#12 = COORDINATED_UNIVERSAL_TIME_OFFSET ( 9, 0, .AHEAD. ) ;
#13 = CALENDAR_DATE ( 2013, 13, 5 ) ;
#14 = PRODUCT ( 'sone3D', 'sone3D', '', ( #150 ) ) ;
#15 = AXIS2_PLACEMENT_3D ( 'NONE', #95, #96, #97 ) ;
#16 = VECTOR ( 'NONE', #76, 1000.000000000000000 ) ;
#17 = AXIS2_PLACEMENT_3D ( 'NONE', #89, #201, #152 ) ;
#18 = EDGE_CURVE ( 'NONE', #50, #49, #230, .T. ) ;
#19 = EDGE_CURVE ( 'NONE', #48, #49, #71, .T. ) ;
#20 = EDGE_CURVE ( 'NONE', #215, #48, #74, .T. ) ;
#21 = EDGE_CURVE ( 'NONE', #216, #217, #77, .T. ) ;
#22 = PRODUCT_DEFINITION ( 'UNKNOWN', '', #194, #203 ) ;
#23 = APPROVAL ( #167, 'UNSPECIFIED' ) ;
#24 = LOCAL_TIME ( 10, 54, 13.00000000000000000, #9 ) ;
#25 = CC_DESIGN_PERSON_AND_ORGANIZATION_ASSIGNMENT ( #151, #164, ( #14 ) ) ;
#26 = CC_DESIGN_PERSON_AND_ORGANIZATION_ASSIGNMENT ( #171, #172, ( #22 ) ) ;
#27 = LOCAL_TIME ( 10, 54, 13.00000000000000000, #12 ) ;
#28 = CC_DESIGN_DATE_AND_TIME_ASSIGNMENT ( #173, #174, ( #22 ) ) ;
#29 = APPROVAL ( #176, 'UNSPECIFIED' ) ;
#30 = ADVANCED_FACE ( 'NONE', ( #88 ), #69, .F. ) ;
#31 = ADVANCED_FACE ( 'NONE', ( #66 ), #67, .T. ) ;
#32 = ADVANCED_FACE ( 'NONE', ( #68 ), #94, .F. ) ;
#33 = ADVANCED_FACE ( 'NONE', ( #59 ), #98, .F. ) ;
#34 = ADVANCED_FACE ( 'NONE', ( #58 ), #102, .F. ) ;
#35 = EDGE_CURVE ( 'NONE', #49, #214, #106, .T. ) ;
#36 = EDGE_CURVE ( 'NONE', #50, #213, #110, .T. ) ;
#37 = EDGE_CURVE ( 'NONE', #216, #215, #113, .T. ) ;
#38 = EDGE_CURVE ( 'NONE', #214, #215, #116, .T. ) ;
#39 = EDGE_CURVE ( 'NONE', #213, #216, #119, .T. ) ;
#40 = EDGE_CURVE ( 'NONE', #217, #50, #122, .T. ) ;
#41 = EDGE_CURVE ( 'NONE', #213, #214, #125, .T. ) ;
#42 = EDGE_CURVE ( 'NONE', #217, #48, #128, .T. ) ;
#43 = ORIENTED_EDGE ( 'NONE', *, *, #39, .F. ) ;
#44 = ORIENTED_EDGE ( 'NONE', *, *, #38, .T. ) ;
#45 = ORIENTED_EDGE ( 'NONE', *, *, #18, .T. ) ;
#46 = ORIENTED_EDGE ( 'NONE', *, *, #41, .F. ) ;
#47 = ORIENTED_EDGE ( 'NONE', *, *, #36, .F. ) ;
#48 = VERTEX_POINT ( 'NONE', #109 ) ;
#49 = VERTEX_POINT ( 'NONE', #131 ) ;
#50 = VERTEX_POINT ( 'NONE', #132 ) ;
#51 = EDGE_LOOP ( 'NONE', ( #44, #207, #43, #205 ) ) ;
#52 = EDGE_LOOP ( 'NONE', ( #212, #209, #208, #210 ) ) ;
#53 = EDGE_LOOP ( 'NONE', ( #211, #46, #47, #45 ) ) ;
#54 = EDGE_LOOP ( 'NONE', ( #221, #222, #220, #224 ) ) ;
#55 = EDGE_LOOP ( 'NONE', ( #225, #226, #227, #223 ) ) ;
#56 = EDGE_LOOP ( 'NONE', ( #229, #218, #219, #228 ) ) ;
#57 = AXIS2_PLACEMENT_3D ( 'NONE', #99, #100, #101 ) ;
#58 = FACE_OUTER_BOUND ( 'NONE', #53, .T. ) ;
#59 = FACE_OUTER_BOUND ( 'NONE', #52, .T. ) ;
#60 = AXIS2_PLACEMENT_3D ( 'NONE', #103, #104, #105 ) ;
#61 = AXIS2_PLACEMENT_3D ( 'NONE', #139, #140, #141 ) ;
#62 = VECTOR ( 'NONE', #108, 1000.000000000000000 ) ;
#63 = VECTOR ( 'NONE', #112, 1000.000000000000000 ) ;
#64 = VECTOR ( 'NONE', #115, 1000.000000000000000 ) ;
#65 = FACE_OUTER_BOUND ( 'NONE', #51, .T. ) ;
#66 = FACE_OUTER_BOUND ( 'NONE', #55, .T. ) ;
#67 = PLANE ( 'NONE',  #17 ) ;
#68 = FACE_OUTER_BOUND ( 'NONE', #56, .T. ) ;
#69 = PLANE ( 'NONE',  #163 ) ;
#70 = DIRECTION ( 'NONE',  ( -0.0000000000000000000, -0.0000000000000000000, -1.000000000000000000 ) ) ;
#71 = LINE ( 'NONE', #72, #155 ) ;
#72 = CARTESIAN_POINT ( 'NONE',  ( -10.00000000000000000, 1.500000000000001100, -1000.000000000000000 ) ) ;
#73 = DIRECTION ( 'NONE',  ( 0.0000000000000000000, -1.000000000000000000, 0.0000000000000000000 ) ) ;
#74 = LINE ( 'NONE', #75, #16 ) ;
#75 = CARTESIAN_POINT ( 'NONE',  ( -10.00000000000000000, 1.500000000000001100, -1000.000000000000000 ) ) ;
#76 = DIRECTION ( 'NONE',  ( -1.000000000000000000, 5.421010862427522200E-017, -0.0000000000000000000 ) ) ;
#77 = LINE ( 'NONE', #78, #162 ) ;
#78 = CARTESIAN_POINT ( 'NONE',  ( -10.00000000000000000, 1.500000000000001100, 1000.000000000000000 ) ) ;
#79 = DIRECTION ( 'NONE',  ( -1.000000000000000000, 5.421010862427522200E-017, -0.0000000000000000000 ) ) ;
#80 = CARTESIAN_POINT ( 'NONE',  ( -10.00000000000000000, 1.500000000000001100, 1000.000000000000000 ) ) ;
#81 = CC_DESIGN_PERSON_AND_ORGANIZATION_ASSIGNMENT ( #180, #181, ( #194 ) ) ;
#82 = CC_DESIGN_PERSON_AND_ORGANIZATION_ASSIGNMENT ( #182, #183, ( #194 ) ) ;
#83 = CC_DESIGN_PERSON_AND_ORGANIZATION_ASSIGNMENT ( #185, #186, ( #199 ) ) ;
#84 = LOCAL_TIME ( 10, 54, 13.00000000000000000, #200 ) ;
#85 = CC_DESIGN_DATE_AND_TIME_ASSIGNMENT ( #187, #188, ( #199 ) ) ;
#86 = APPROVAL ( #190, 'UNSPECIFIED' ) ;
#87 = CLOSED_SHELL ( 'NONE', ( #33, #34, #234, #30, #31, #32 ) ) ;
#88 = FACE_OUTER_BOUND ( 'NONE', #54, .T. ) ;
#89 = CARTESIAN_POINT ( 'NONE',  ( 0.0000000000000000000, 0.0000000000000000000, 1000.000000000000000 ) ) ;
#90 = APPLICATION_CONTEXT ( 'configuration controlled 3d designs of mechanical parts and assemblies' ) ;
#91 = PERSON ( 'UNSPECIFIED', 'UNSPECIFIED', 'UNSPECIFIED', ('UNSPECIFIED'), ('UNSPECIFIED'), ('UNSPECIFIED') ) ;
#92 = ADVANCED_BREP_SHAPE_REPRESENTATION ( 'sone3D', ( #204, #161 ), #202 ) ;
#93 = UNCERTAINTY_MEASURE_WITH_UNIT (LENGTH_MEASURE( 1.000000000000000100E-005 ), #142, 'distance_accuracy_value', 'NONE');
#94 = PLANE ( 'NONE',  #15 ) ;
#95 = CARTESIAN_POINT ( 'NONE',  ( 0.0000000000000000000, 0.0000000000000000000, -1000.000000000000000 ) ) ;
#96 = DIRECTION ( 'NONE',  ( -0.0000000000000000000, 0.0000000000000000000, 1.000000000000000000 ) ) ;
#97 = DIRECTION ( 'NONE',  ( 1.000000000000000000, 0.0000000000000000000, 0.0000000000000000000 ) ) ;
#98 = PLANE ( 'NONE',  #57 ) ;
#99 = CARTESIAN_POINT ( 'NONE',  ( -10.00000000000000000, 1.500000000000001100, 1000.000000000000000 ) ) ;
#100 = DIRECTION ( 'NONE',  ( 1.000000000000000000, 0.0000000000000000000, -0.0000000000000000000 ) ) ;
#101 = DIRECTION ( 'NONE',  ( -0.0000000000000000000, 0.0000000000000000000, -1.000000000000000000 ) ) ;
#102 = PLANE ( 'NONE',  #60 ) ;
#103 = CARTESIAN_POINT ( 'NONE',  ( -10.00000000000000000, -1.500000000000001100, 1000.000000000000000 ) ) ;
#104 = DIRECTION ( 'NONE',  ( -5.421010862427522200E-017, 1.000000000000000000, 0.0000000000000000000 ) ) ;
#105 = DIRECTION ( 'NONE',  ( -1.000000000000000000, -5.421010862427522200E-017, 0.0000000000000000000 ) ) ;
#106 = LINE ( 'NONE', #107, #62 ) ;
#107 = CARTESIAN_POINT ( 'NONE',  ( -10.00000000000000000, -1.500000000000001100, -1000.000000000000000 ) ) ;
#108 = DIRECTION ( 'NONE',  ( 1.000000000000000000, 5.421010862427522200E-017, 0.0000000000000000000 ) ) ;
#109 = CARTESIAN_POINT ( 'NONE',  ( -10.00000000000000000, 1.500000000000001100, -1000.000000000000000 ) ) ;
#110 = LINE ( 'NONE', #111, #63 ) ;
#111 = CARTESIAN_POINT ( 'NONE',  ( -10.00000000000000000, -1.500000000000001100, 1000.000000000000000 ) ) ;
#112 = DIRECTION ( 'NONE',  ( 1.000000000000000000, 5.421010862427522200E-017, 0.0000000000000000000 ) ) ;
#113 = LINE ( 'NONE', #114, #64 ) ;
#114 = CARTESIAN_POINT ( 'NONE',  ( 10.00000000000000000, 1.500000000000000000, 1000.000000000000000 ) ) ;
#115 = DIRECTION ( 'NONE',  ( -0.0000000000000000000, -0.0000000000000000000, -1.000000000000000000 ) ) ;
#116 = LINE ( 'NONE', #117, #235 ) ;
#117 = CARTESIAN_POINT ( 'NONE',  ( 10.00000000000000000, 1.500000000000000000, -1000.000000000000000 ) ) ;
#118 = DIRECTION ( 'NONE',  ( -0.0000000000000000000, 1.000000000000000000, -0.0000000000000000000 ) ) ;
#119 = LINE ( 'NONE', #120, #157 ) ;
#120 = CARTESIAN_POINT ( 'NONE',  ( 10.00000000000000000, 1.500000000000000000, 1000.000000000000000 ) ) ;
#121 = DIRECTION ( 'NONE',  ( -0.0000000000000000000, 1.000000000000000000, -0.0000000000000000000 ) ) ;
#122 = LINE ( 'NONE', #123, #158 ) ;
#123 = CARTESIAN_POINT ( 'NONE',  ( -10.00000000000000000, 1.500000000000001100, 1000.000000000000000 ) ) ;
#124 = DIRECTION ( 'NONE',  ( 0.0000000000000000000, -1.000000000000000000, 0.0000000000000000000 ) ) ;
#125 = LINE ( 'NONE', #126, #159 ) ;
#126 = CARTESIAN_POINT ( 'NONE',  ( 10.00000000000000000, -1.500000000000000000, 1000.000000000000000 ) ) ;
#127 = DIRECTION ( 'NONE',  ( -0.0000000000000000000, -0.0000000000000000000, -1.000000000000000000 ) ) ;
#128 = LINE ( 'NONE', #129, #160 ) ;
#129 = CARTESIAN_POINT ( 'NONE',  ( -10.00000000000000000, 1.500000000000001100, 1000.000000000000000 ) ) ;
#130 = DIRECTION ( 'NONE',  ( -0.0000000000000000000, -0.0000000000000000000, -1.000000000000000000 ) ) ;
#131 = CARTESIAN_POINT ( 'NONE',  ( -10.00000000000000000, -1.500000000000001100, -1000.000000000000000 ) ) ;
#132 = CARTESIAN_POINT ( 'NONE',  ( -10.00000000000000000, -1.500000000000001100, 1000.000000000000000 ) ) ;
#133 = CARTESIAN_POINT ( 'NONE',  ( 10.00000000000000000, -1.500000000000000000, 1000.000000000000000 ) ) ;
#134 = CARTESIAN_POINT ( 'NONE',  ( 10.00000000000000000, -1.500000000000000000, -1000.000000000000000 ) ) ;
#135 = CARTESIAN_POINT ( 'NONE',  ( 10.00000000000000000, 1.500000000000000000, -1000.000000000000000 ) ) ;
#136 = CARTESIAN_POINT ( 'NONE',  ( 10.00000000000000000, 1.500000000000000000, 1000.000000000000000 ) ) ;
#137 = CARTESIAN_POINT ( 'NONE',  ( -10.00000000000000000, 1.500000000000001100, 1000.000000000000000 ) ) ;
#138 = PLANE ( 'NONE',  #61 ) ;
#139 = CARTESIAN_POINT ( 'NONE',  ( 10.00000000000000000, 1.500000000000000000, 1000.000000000000000 ) ) ;
#140 = DIRECTION ( 'NONE',  ( -1.000000000000000000, 0.0000000000000000000, 0.0000000000000000000 ) ) ;
#141 = DIRECTION ( 'NONE',  ( 0.0000000000000000000, 0.0000000000000000000, 1.000000000000000000 ) ) ;
#142 =( LENGTH_UNIT ( ) NAMED_UNIT ( * ) SI_UNIT ( .MILLI., .METRE. ) );
#143 =( NAMED_UNIT ( * ) PLANE_ANGLE_UNIT ( ) SI_UNIT ( $, .RADIAN. ) );
#144 =( NAMED_UNIT ( * ) SI_UNIT ( $, .STERADIAN. ) SOLID_ANGLE_UNIT ( ) );
#145 = APPLICATION_PROTOCOL_DEFINITION ( 'international standard', 'config_control_design', 1994, #233 ) ;
#146 = CARTESIAN_POINT ( 'NONE',  ( 0.0000000000000000000, 0.0000000000000000000, 0.0000000000000000000 ) ) ;
#147 = DIRECTION ( 'NONE',  ( 0.0000000000000000000, 0.0000000000000000000, 1.000000000000000000 ) ) ;
#148 = DIRECTION ( 'NONE',  ( 1.000000000000000000, 0.0000000000000000000, 0.0000000000000000000 ) ) ;
#149 = SHAPE_DEFINITION_REPRESENTATION ( #206, #92 ) ;
#150 = MECHANICAL_CONTEXT ( 'NONE', #233, 'mechanical' ) ;
#151 = PERSON_AND_ORGANIZATION ( #91, #7 ) ;
#152 = DIRECTION ( 'NONE',  ( 1.000000000000000000, 0.0000000000000000000, 0.0000000000000000000 ) ) ;
#153 = LOCAL_TIME ( 10, 54, 13.00000000000000000, #3 ) ;
#154 = PRODUCT_RELATED_PRODUCT_CATEGORY ( 'detail', '', ( #14 ) ) ;
#155 = VECTOR ( 'NONE', #73, 1000.000000000000000 ) ;
#156 = VECTOR ( 'NONE', #70, 1000.000000000000000 ) ;
#157 = VECTOR ( 'NONE', #121, 1000.000000000000000 ) ;
#158 = VECTOR ( 'NONE', #124, 1000.000000000000000 ) ;
#159 = VECTOR ( 'NONE', #127, 1000.000000000000000 ) ;
#160 = VECTOR ( 'NONE', #130, 1000.000000000000000 ) ;
#161 = AXIS2_PLACEMENT_3D ( 'NONE', #146, #147, #148 ) ;
#162 = VECTOR ( 'NONE', #79, 1000.000000000000000 ) ;
#163 = AXIS2_PLACEMENT_3D ( 'NONE', #80, #237, #236 ) ;
#164 = PERSON_AND_ORGANIZATION_ROLE ( 'design_owner' ) ;
#165 = APPLICATION_PROTOCOL_DEFINITION ( 'international standard', 'config_control_design', 1994, #90 ) ;
#166 = PERSON_AND_ORGANIZATION ( #91, #7 ) ;
#167 = APPROVAL_STATUS ( 'not_yet_approved' ) ;
#168 = APPROVAL_ROLE ( '' ) ;
#169 = DATE_AND_TIME ( #10, #24 ) ;
#170 = APPROVAL_DATE_TIME ( #169, #23 ) ;
#171 = PERSON_AND_ORGANIZATION ( #91, #7 ) ;
#172 = PERSON_AND_ORGANIZATION_ROLE ( 'creator' ) ;
#173 = DATE_AND_TIME ( #13, #27 ) ;
#174 = DATE_TIME_ROLE ( 'creation_date' ) ;
#175 = PERSON_AND_ORGANIZATION ( #91, #7 ) ;
#176 = APPROVAL_STATUS ( 'not_yet_approved' ) ;
#177 = APPROVAL_ROLE ( '' ) ;
#178 = DATE_AND_TIME ( #197, #232 ) ;
#179 = APPROVAL_DATE_TIME ( #178, #29 ) ;
#180 = PERSON_AND_ORGANIZATION ( #91, #7 ) ;
#181 = PERSON_AND_ORGANIZATION_ROLE ( 'creator' ) ;
#182 = PERSON_AND_ORGANIZATION ( #91, #7 ) ;
#183 = PERSON_AND_ORGANIZATION_ROLE ( 'design_supplier' ) ;
#184 = SECURITY_CLASSIFICATION_LEVEL ( 'unclassified' ) ;
#185 = PERSON_AND_ORGANIZATION ( #91, #7 ) ;
#186 = PERSON_AND_ORGANIZATION_ROLE ( 'classification_officer' ) ;
#187 = DATE_AND_TIME ( #1, #84 ) ;
#188 = DATE_TIME_ROLE ( 'classification_date' ) ;
#189 = PERSON_AND_ORGANIZATION ( #91, #7 ) ;
#190 = APPROVAL_STATUS ( 'not_yet_approved' ) ;
#191 = APPROVAL_ROLE ( '' ) ;
#192 = DATE_AND_TIME ( #4, #153 ) ;
#193 = APPROVAL_DATE_TIME ( #192, #86 ) ;
#194 = PRODUCT_DEFINITION_FORMATION_WITH_SPECIFIED_SOURCE ( 'ANY', '', #14, .NOT_KNOWN. ) ;
#195 = APPROVAL_PERSON_ORGANIZATION ( #175, #29, #177 ) ;
#196 = COORDINATED_UNIVERSAL_TIME_OFFSET ( 9, 0, .AHEAD. ) ;
#197 = CALENDAR_DATE ( 2013, 13, 5 ) ;
#198 = CC_DESIGN_APPROVAL ( #29, ( #194 ) ) ;
#199 = SECURITY_CLASSIFICATION ( '', '', #184 ) ;
#200 = COORDINATED_UNIVERSAL_TIME_OFFSET ( 9, 0, .AHEAD. ) ;
#201 = DIRECTION ( 'NONE',  ( -0.0000000000000000000, 0.0000000000000000000, 1.000000000000000000 ) ) ;
#202 =( GEOMETRIC_REPRESENTATION_CONTEXT ( 3 ) GLOBAL_UNCERTAINTY_ASSIGNED_CONTEXT ( ( #93 ) ) GLOBAL_UNIT_ASSIGNED_CONTEXT ( ( #142, #143, #144 ) ) REPRESENTATION_CONTEXT ( 'NONE', 'WORKASPACE' ) );
#203 = DESIGN_CONTEXT ( 'detailed design', #90, 'design' ) ;
#204 = MANIFOLD_SOLID_BREP ( 'ÎÞ½ - µoµ1', #87 ) ;
#205 = ORIENTED_EDGE ( 'NONE', *, *, #41, .T. ) ;
#206 = PRODUCT_DEFINITION_SHAPE ( 'NONE', 'NONE',  #22 ) ;
#207 = ORIENTED_EDGE ( 'NONE', *, *, #37, .F. ) ;
#208 = ORIENTED_EDGE ( 'NONE', *, *, #40, .F. ) ;
#209 = ORIENTED_EDGE ( 'NONE', *, *, #18, .F. ) ;
#210 = ORIENTED_EDGE ( 'NONE', *, *, #42, .T. ) ;
#211 = ORIENTED_EDGE ( 'NONE', *, *, #35, .T. ) ;
#212 = ORIENTED_EDGE ( 'NONE', *, *, #19, .T. ) ;
#213 = VERTEX_POINT ( 'NONE', #133 ) ;
#214 = VERTEX_POINT ( 'NONE', #134 ) ;
#215 = VERTEX_POINT ( 'NONE', #135 ) ;
#216 = VERTEX_POINT ( 'NONE', #136 ) ;
#217 = VERTEX_POINT ( 'NONE', #137 ) ;
#218 = ORIENTED_EDGE ( 'NONE', *, *, #20, .F. ) ;
#219 = ORIENTED_EDGE ( 'NONE', *, *, #38, .F. ) ;
#220 = ORIENTED_EDGE ( 'NONE', *, *, #21, .F. ) ;
#221 = ORIENTED_EDGE ( 'NONE', *, *, #20, .T. ) ;
#222 = ORIENTED_EDGE ( 'NONE', *, *, #42, .F. ) ;
#223 = ORIENTED_EDGE ( 'NONE', *, *, #21, .T. ) ;
#224 = ORIENTED_EDGE ( 'NONE', *, *, #37, .T. ) ;
#225 = ORIENTED_EDGE ( 'NONE', *, *, #40, .T. ) ;
#226 = ORIENTED_EDGE ( 'NONE', *, *, #36, .T. ) ;
#227 = ORIENTED_EDGE ( 'NONE', *, *, #39, .T. ) ;
#228 = ORIENTED_EDGE ( 'NONE', *, *, #35, .F. ) ;
#229 = ORIENTED_EDGE ( 'NONE', *, *, #19, .F. ) ;
#230 = LINE ( 'NONE', #231, #156 ) ;
#231 = CARTESIAN_POINT ( 'NONE',  ( -10.00000000000000000, -1.500000000000001100, 1000.000000000000000 ) ) ;
#232 = LOCAL_TIME ( 10, 54, 13.00000000000000000, #196 ) ;
#233 = APPLICATION_CONTEXT ( 'configuration controlled 3d designs of mechanical parts and assemblies' ) ;
#234 = ADVANCED_FACE ( 'NONE', ( #65 ), #138, .F. ) ;
#235 = VECTOR ( 'NONE', #118, 1000.000000000000000 ) ;
#236 = DIRECTION ( 'NONE',  ( 1.000000000000000000, -5.421010862427522200E-017, 0.0000000000000000000 ) ) ;
#237 = DIRECTION ( 'NONE',  ( -5.421010862427522200E-017, -1.000000000000000000, 0.0000000000000000000 ) ) ;
ENDSEC;
END-ISO-10303-21;
