ISO-10303-21;
HEADER;
FILE_DESCRIPTION (( 'STEP AP203' ),
    '1' );
FILE_NAME ('sone3D.STEP',
    '2013-05-13T01:52:56',
    ( '' ),
    ( '' ),
    'SwSTEP 2.0',
    'SolidWorks 2012',
    '' );
FILE_SCHEMA (( 'CONFIG_CONTROL_DESIGN' ));
ENDSEC;

DATA;
#1 = VECTOR ( 'NONE', #196, 1000.000000000000000 ) ;
#2 = PERSON_AND_ORGANIZATION ( #213, #133 ) ;
#3 = APPROVAL_STATUS ( 'not_yet_approved' ) ;
#4 = APPROVAL_ROLE ( '' ) ;
#5 = DATE_AND_TIME ( #136, #74 ) ;
#6 = APPROVAL_DATE_TIME ( #5, #75 ) ;
#7 = PERSON_AND_ORGANIZATION ( #213, #133 ) ;
#8 = PERSON_AND_ORGANIZATION_ROLE ( 'creator' ) ;
#9 = DATE_AND_TIME ( #139, #71 ) ;
#10 = DATE_TIME_ROLE ( 'creation_date' ) ;
#11 = PERSON_AND_ORGANIZATION ( #213, #133 ) ;
#12 = APPROVAL_STATUS ( 'not_yet_approved' ) ;
#13 = APPROVAL_ROLE ( '' ) ;
#14 = DATE_AND_TIME ( #143, #72 ) ;
#15 = APPROVAL_DATE_TIME ( #14, #70 ) ;
#16 = PERSON_AND_ORGANIZATION ( #213, #133 ) ;
#17 = PERSON_AND_ORGANIZATION_ROLE ( 'creator' ) ;
#18 = PERSON_AND_ORGANIZATION ( #213, #133 ) ;
#19 = PERSON_AND_ORGANIZATION_ROLE ( 'design_supplier' ) ;
#20 = SECURITY_CLASSIFICATION_LEVEL ( 'unclassified' ) ;
#21 = PERSON_AND_ORGANIZATION ( #213, #133 ) ;
#22 = PERSON_AND_ORGANIZATION_ROLE ( 'classification_officer' ) ;
#23 = DATE_AND_TIME ( #59, #76 ) ;
#24 = DATE_TIME_ROLE ( 'classification_date' ) ;
#25 = PERSON_AND_ORGANIZATION ( #213, #133 ) ;
#26 = APPROVAL_STATUS ( 'not_yet_approved' ) ;
#27 = APPROVAL_ROLE ( '' ) ;
#28 = DATE_AND_TIME ( #62, #79 ) ;
#29 = APPROVAL_DATE_TIME ( #28, #78 ) ;
#30 = VECTOR ( 'NONE', #115, 1000.000000000000000 ) ;
#31 = FACE_OUTER_BOUND ( 'NONE', #181, .T. ) ;
#32 = FACE_OUTER_BOUND ( 'NONE', #182, .T. ) ;
#33 = AXIS2_PLACEMENT_3D ( 'NONE', #127, #154, #155 ) ;
#34 = AXIS2_PLACEMENT_3D ( 'NONE', #157, #158, #159 ) ;
#35 = VECTOR ( 'NONE', #125, 1000.000000000000000 ) ;
#36 = FACE_OUTER_BOUND ( 'NONE', #179, .T. ) ;
#37 = AXIS2_PLACEMENT_3D ( 'NONE', #168, #169, #170 ) ;
#38 = PRODUCT_DEFINITION ( 'UNKNOWN', '', #140, #236 ) ;
#39 = CC_DESIGN_PERSON_AND_ORGANIZATION_ASSIGNMENT ( #173, #174, ( #48 ) ) ;
#40 = EDGE_CURVE ( 'NONE', #227, #225, #190, .T. ) ;
#41 = EDGE_CURVE ( 'NONE', #82, #83, #194, .T. ) ;
#42 = EDGE_CURVE ( 'NONE', #82, #84, #197, .T. ) ;
#43 = EDGE_CURVE ( 'NONE', #84, #132, #200, .T. ) ;
#44 = EDGE_CURVE ( 'NONE', #83, #132, #203, .T. ) ;
#45 = ADVANCED_FACE ( 'NONE', ( #85 ), #193, .F. ) ;
#46 = ADVANCED_FACE ( 'NONE', ( #49 ), #209, .T. ) ;
#47 = EDGE_CURVE ( 'NONE', #227, #226, #93, .T. ) ;
#48 = PRODUCT ( 'sone3D', 'sone3D', '', ( #172 ) ) ;
#49 = FACE_OUTER_BOUND ( 'NONE', #189, .T. ) ;
#50 = FACE_OUTER_BOUND ( 'NONE', #180, .T. ) ;
#51 = AXIS2_PLACEMENT_3D ( 'NONE', #116, #117, #118 ) ;
#52 = VECTOR ( 'NONE', #95, 1000.000000000000000 ) ;
#53 = VECTOR ( 'NONE', #101, 1000.000000000000000 ) ;
#54 = VECTOR ( 'NONE', #105, 1000.000000000000000 ) ;
#55 = AXIS2_PLACEMENT_3D ( 'NONE', #120, #121, #122 ) ;
#56 = VECTOR ( 'NONE', #108, 1000.000000000000000 ) ;
#57 = VECTOR ( 'NONE', #112, 1000.000000000000000 ) ;
#58 = COORDINATED_UNIVERSAL_TIME_OFFSET ( 9, 0, .AHEAD. ) ;
#59 = CALENDAR_DATE ( 2013, 13, 5 ) ;
#60 = APPROVAL_PERSON_ORGANIZATION ( #25, #78, #27 ) ;
#61 = COORDINATED_UNIVERSAL_TIME_OFFSET ( 9, 0, .AHEAD. ) ;
#62 = CALENDAR_DATE ( 2013, 13, 5 ) ;
#63 = CC_DESIGN_APPROVAL ( #78, ( #145 ) ) ;
#64 = CC_DESIGN_SECURITY_CLASSIFICATION ( #145, ( #140 ) ) ;
#65 = ORIENTED_EDGE ( 'NONE', *, *, #90, .T. ) ;
#66 =( GEOMETRIC_REPRESENTATION_CONTEXT ( 3 ) GLOBAL_UNCERTAINTY_ASSIGNED_CONTEXT ( ( #212 ) ) GLOBAL_UNIT_ASSIGNED_CONTEXT ( ( #164, #165, #166 ) ) REPRESENTATION_CONTEXT ( 'NONE', 'WORKASPACE' ) );
#67 = VECTOR ( 'NONE', #202, 1000.000000000000000 ) ;
#68 = AXIS2_PLACEMENT_3D ( 'NONE', #210, #211, #92 ) ;
#69 = CC_DESIGN_PERSON_AND_ORGANIZATION_ASSIGNMENT ( #7, #8, ( #38 ) ) ;
#70 = APPROVAL ( #12, 'UNSPECIFIED' ) ;
#71 = LOCAL_TIME ( 10, 52, 56.00000000000000000, #138 ) ;
#72 = LOCAL_TIME ( 10, 52, 56.00000000000000000, #142 ) ;
#73 = CC_DESIGN_DATE_AND_TIME_ASSIGNMENT ( #9, #10, ( #38 ) ) ;
#74 = LOCAL_TIME ( 10, 52, 56.00000000000000000, #135 ) ;
#75 = APPROVAL ( #3, 'UNSPECIFIED' ) ;
#76 = LOCAL_TIME ( 10, 52, 56.00000000000000000, #58 ) ;
#77 = CC_DESIGN_DATE_AND_TIME_ASSIGNMENT ( #23, #24, ( #145 ) ) ;
#78 = APPROVAL ( #26, 'UNSPECIFIED' ) ;
#79 = LOCAL_TIME ( 10, 52, 56.00000000000000000, #61 ) ;
#80 = PRODUCT_RELATED_PRODUCT_CATEGORY ( 'detail', '', ( #48 ) ) ;
#81 = ORIENTED_EDGE ( 'NONE', *, *, #41, .F. ) ;
#82 = VERTEX_POINT ( 'NONE', #97 ) ;
#83 = VERTEX_POINT ( 'NONE', #98 ) ;
#84 = VERTEX_POINT ( 'NONE', #99 ) ;
#85 = FACE_OUTER_BOUND ( 'NONE', #188, .T. ) ;
#86 = CLOSED_SHELL ( 'NONE', ( #153, #148, #149, #152, #46, #45 ) ) ;
#87 = AXIS2_PLACEMENT_3D ( 'NONE', #206, #207, #208 ) ;
#88 = VECTOR ( 'NONE', #192, 1000.000000000000000 ) ;
#89 = EDGE_CURVE ( 'NONE', #84, #227, #96, .T. ) ;
#90 = EDGE_CURVE ( 'NONE', #226, #228, #103, .T. ) ;
#91 = EDGE_CURVE ( 'NONE', #225, #228, #106, .T. ) ;
#92 = DIRECTION ( 'NONE',  ( 1.000000000000000000, 0.0000000000000000000, 0.0000000000000000000 ) ) ;
#93 = LINE ( 'NONE', #94, #52 ) ;
#94 = CARTESIAN_POINT ( 'NONE',  ( 5.000000000000000000, 1.499999999999999600, 1000.000000000000000 ) ) ;
#95 = DIRECTION ( 'NONE',  ( -0.0000000000000000000, 1.000000000000000000, -0.0000000000000000000 ) ) ;
#96 = LINE ( 'NONE', #100, #53 ) ;
#97 = CARTESIAN_POINT ( 'NONE',  ( -5.000000000000000000, 1.500000000000000400, 1000.000000000000000 ) ) ;
#98 = CARTESIAN_POINT ( 'NONE',  ( -5.000000000000000000, 1.500000000000000400, -1000.000000000000000 ) ) ;
#99 = CARTESIAN_POINT ( 'NONE',  ( -5.000000000000000000, -1.500000000000000400, 1000.000000000000000 ) ) ;
#100 = CARTESIAN_POINT ( 'NONE',  ( -5.000000000000000000, -1.500000000000000400, 1000.000000000000000 ) ) ;
#101 = DIRECTION ( 'NONE',  ( 1.000000000000000000, 8.673617379884035500E-017, 0.0000000000000000000 ) ) ;
#102 = PLANE ( 'NONE',  #51 ) ;
#103 = LINE ( 'NONE', #104, #54 ) ;
#104 = CARTESIAN_POINT ( 'NONE',  ( 5.000000000000000000, 1.499999999999999600, 1000.000000000000000 ) ) ;
#105 = DIRECTION ( 'NONE',  ( -0.0000000000000000000, -0.0000000000000000000, -1.000000000000000000 ) ) ;
#106 = LINE ( 'NONE', #107, #56 ) ;
#107 = CARTESIAN_POINT ( 'NONE',  ( 5.000000000000000000, 1.499999999999999600, -1000.000000000000000 ) ) ;
#108 = DIRECTION ( 'NONE',  ( -0.0000000000000000000, 1.000000000000000000, -0.0000000000000000000 ) ) ;
#109 = CARTESIAN_POINT ( 'NONE',  ( -5.000000000000000000, -1.500000000000000400, -1000.000000000000000 ) ) ;
#110 = LINE ( 'NONE', #111, #57 ) ;
#111 = CARTESIAN_POINT ( 'NONE',  ( -5.000000000000000000, 1.500000000000000400, 1000.000000000000000 ) ) ;
#112 = DIRECTION ( 'NONE',  ( -1.000000000000000000, 8.673617379884035500E-017, -0.0000000000000000000 ) ) ;
#113 = LINE ( 'NONE', #114, #30 ) ;
#114 = CARTESIAN_POINT ( 'NONE',  ( -5.000000000000000000, -1.500000000000000400, -1000.000000000000000 ) ) ;
#115 = DIRECTION ( 'NONE',  ( 1.000000000000000000, 8.673617379884035500E-017, 0.0000000000000000000 ) ) ;
#116 = CARTESIAN_POINT ( 'NONE',  ( -5.000000000000000000, -1.500000000000000400, 1000.000000000000000 ) ) ;
#117 = DIRECTION ( 'NONE',  ( -8.673617379884035500E-017, 1.000000000000000000, 0.0000000000000000000 ) ) ;
#118 = DIRECTION ( 'NONE',  ( -1.000000000000000000, -8.673617379884035500E-017, 0.0000000000000000000 ) ) ;
#119 = PLANE ( 'NONE',  #55 ) ;
#120 = CARTESIAN_POINT ( 'NONE',  ( 5.000000000000000000, 1.499999999999999600, 1000.000000000000000 ) ) ;
#121 = DIRECTION ( 'NONE',  ( -1.000000000000000000, 0.0000000000000000000, 0.0000000000000000000 ) ) ;
#122 = DIRECTION ( 'NONE',  ( 0.0000000000000000000, 0.0000000000000000000, 1.000000000000000000 ) ) ;
#123 = LINE ( 'NONE', #124, #35 ) ;
#124 = CARTESIAN_POINT ( 'NONE',  ( -5.000000000000000000, 1.500000000000000400, -1000.000000000000000 ) ) ;
#125 = DIRECTION ( 'NONE',  ( -1.000000000000000000, 8.673617379884035500E-017, -0.0000000000000000000 ) ) ;
#126 = PLANE ( 'NONE',  #33 ) ;
#127 = CARTESIAN_POINT ( 'NONE',  ( -5.000000000000000000, 1.500000000000000400, 1000.000000000000000 ) ) ;
#128 = APPLICATION_CONTEXT ( 'configuration controlled 3d designs of mechanical parts and assemblies' ) ;
#129 = APPLICATION_CONTEXT ( 'configuration controlled 3d designs of mechanical parts and assemblies' ) ;
#130 = VECTOR ( 'NONE', #199, 1000.000000000000000 ) ;
#131 = VECTOR ( 'NONE', #205, 1000.000000000000000 ) ;
#132 = VERTEX_POINT ( 'NONE', #109 ) ;
#133 = ORGANIZATION ( 'UNSPECIFIED', 'UNSPECIFIED', '' ) ;
#134 = APPROVAL_PERSON_ORGANIZATION ( #2, #75, #4 ) ;
#135 = COORDINATED_UNIVERSAL_TIME_OFFSET ( 9, 0, .AHEAD. ) ;
#136 = CALENDAR_DATE ( 2013, 13, 5 ) ;
#137 = CC_DESIGN_APPROVAL ( #75, ( #38 ) ) ;
#138 = COORDINATED_UNIVERSAL_TIME_OFFSET ( 9, 0, .AHEAD. ) ;
#139 = CALENDAR_DATE ( 2013, 13, 5 ) ;
#140 = PRODUCT_DEFINITION_FORMATION_WITH_SPECIFIED_SOURCE ( 'ANY', '', #48, .NOT_KNOWN. ) ;
#141 = APPROVAL_PERSON_ORGANIZATION ( #11, #70, #13 ) ;
#142 = COORDINATED_UNIVERSAL_TIME_OFFSET ( 9, 0, .AHEAD. ) ;
#143 = CALENDAR_DATE ( 2013, 13, 5 ) ;
#144 = CC_DESIGN_APPROVAL ( #70, ( #140 ) ) ;
#145 = SECURITY_CLASSIFICATION ( '', '', #20 ) ;
#146 = EDGE_CURVE ( 'NONE', #226, #82, #110, .T. ) ;
#147 = EDGE_CURVE ( 'NONE', #132, #225, #113, .T. ) ;
#148 = ADVANCED_FACE ( 'NONE', ( #50 ), #102, .F. ) ;
#149 = ADVANCED_FACE ( 'NONE', ( #32 ), #119, .F. ) ;
#150 = EDGE_CURVE ( 'NONE', #228, #83, #123, .T. ) ;
#151 = CC_DESIGN_PERSON_AND_ORGANIZATION_ASSIGNMENT ( #21, #22, ( #145 ) ) ;
#152 = ADVANCED_FACE ( 'NONE', ( #31 ), #126, .F. ) ;
#153 = ADVANCED_FACE ( 'NONE', ( #36 ), #156, .F. ) ;
#154 = DIRECTION ( 'NONE',  ( -8.673617379884035500E-017, -1.000000000000000000, 0.0000000000000000000 ) ) ;
#155 = DIRECTION ( 'NONE',  ( 1.000000000000000000, -8.673617379884035500E-017, 0.0000000000000000000 ) ) ;
#156 = PLANE ( 'NONE',  #34 ) ;
#157 = CARTESIAN_POINT ( 'NONE',  ( -5.000000000000000000, 1.500000000000000400, 1000.000000000000000 ) ) ;
#158 = DIRECTION ( 'NONE',  ( 1.000000000000000000, 0.0000000000000000000, -0.0000000000000000000 ) ) ;
#159 = DIRECTION ( 'NONE',  ( -0.0000000000000000000, 0.0000000000000000000, -1.000000000000000000 ) ) ;
#160 = CARTESIAN_POINT ( 'NONE',  ( 5.000000000000000000, -1.499999999999999600, -1000.000000000000000 ) ) ;
#161 = CARTESIAN_POINT ( 'NONE',  ( 5.000000000000000000, 1.499999999999999600, 1000.000000000000000 ) ) ;
#162 = CARTESIAN_POINT ( 'NONE',  ( 5.000000000000000000, -1.499999999999999600, 1000.000000000000000 ) ) ;
#163 = CARTESIAN_POINT ( 'NONE',  ( 5.000000000000000000, 1.499999999999999600, -1000.000000000000000 ) ) ;
#164 =( LENGTH_UNIT ( ) NAMED_UNIT ( * ) SI_UNIT ( .MILLI., .METRE. ) );
#165 =( NAMED_UNIT ( * ) PLANE_ANGLE_UNIT ( ) SI_UNIT ( $, .RADIAN. ) );
#166 =( NAMED_UNIT ( * ) SI_UNIT ( $, .STERADIAN. ) SOLID_ANGLE_UNIT ( ) );
#167 = APPLICATION_PROTOCOL_DEFINITION ( 'international standard', 'config_control_design', 1994, #128 ) ;
#168 = CARTESIAN_POINT ( 'NONE',  ( 0.0000000000000000000, 0.0000000000000000000, 0.0000000000000000000 ) ) ;
#169 = DIRECTION ( 'NONE',  ( 0.0000000000000000000, 0.0000000000000000000, 1.000000000000000000 ) ) ;
#170 = DIRECTION ( 'NONE',  ( 1.000000000000000000, 0.0000000000000000000, 0.0000000000000000000 ) ) ;
#171 = SHAPE_DEFINITION_REPRESENTATION ( #237, #214 ) ;
#172 = MECHANICAL_CONTEXT ( 'NONE', #128, 'mechanical' ) ;
#173 = PERSON_AND_ORGANIZATION ( #213, #133 ) ;
#174 = PERSON_AND_ORGANIZATION_ROLE ( 'design_owner' ) ;
#175 = APPLICATION_PROTOCOL_DEFINITION ( 'international standard', 'config_control_design', 1994, #129 ) ;
#176 = ORIENTED_EDGE ( 'NONE', *, *, #40, .T. ) ;
#177 = ORIENTED_EDGE ( 'NONE', *, *, #146, .F. ) ;
#178 = ORIENTED_EDGE ( 'NONE', *, *, #150, .T. ) ;
#179 = EDGE_LOOP ( 'NONE', ( #183, #185, #184, #186 ) ) ;
#180 = EDGE_LOOP ( 'NONE', ( #187, #230, #229, #231 ) ) ;
#181 = EDGE_LOOP ( 'NONE', ( #178, #81, #177, #65 ) ) ;
#182 = EDGE_LOOP ( 'NONE', ( #232, #234, #233, #176 ) ) ;
#183 = ORIENTED_EDGE ( 'NONE', *, *, #44, .T. ) ;
#184 = ORIENTED_EDGE ( 'NONE', *, *, #42, .F. ) ;
#185 = ORIENTED_EDGE ( 'NONE', *, *, #43, .F. ) ;
#186 = ORIENTED_EDGE ( 'NONE', *, *, #41, .T. ) ;
#187 = ORIENTED_EDGE ( 'NONE', *, *, #147, .T. ) ;
#188 = EDGE_LOOP ( 'NONE', ( #222, #223, #224, #221 ) ) ;
#189 = EDGE_LOOP ( 'NONE', ( #218, #219, #220, #215 ) ) ;
#190 = LINE ( 'NONE', #191, #88 ) ;
#191 = CARTESIAN_POINT ( 'NONE',  ( 5.000000000000000000, -1.499999999999999600, 1000.000000000000000 ) ) ;
#192 = DIRECTION ( 'NONE',  ( -0.0000000000000000000, -0.0000000000000000000, -1.000000000000000000 ) ) ;
#193 = PLANE ( 'NONE',  #87 ) ;
#194 = LINE ( 'NONE', #195, #1 ) ;
#195 = CARTESIAN_POINT ( 'NONE',  ( -5.000000000000000000, 1.500000000000000400, 1000.000000000000000 ) ) ;
#196 = DIRECTION ( 'NONE',  ( -0.0000000000000000000, -0.0000000000000000000, -1.000000000000000000 ) ) ;
#197 = LINE ( 'NONE', #198, #130 ) ;
#198 = CARTESIAN_POINT ( 'NONE',  ( -5.000000000000000000, 1.500000000000000400, 1000.000000000000000 ) ) ;
#199 = DIRECTION ( 'NONE',  ( 0.0000000000000000000, -1.000000000000000000, 0.0000000000000000000 ) ) ;
#200 = LINE ( 'NONE', #201, #67 ) ;
#201 = CARTESIAN_POINT ( 'NONE',  ( -5.000000000000000000, -1.500000000000000400, 1000.000000000000000 ) ) ;
#202 = DIRECTION ( 'NONE',  ( -0.0000000000000000000, -0.0000000000000000000, -1.000000000000000000 ) ) ;
#203 = LINE ( 'NONE', #204, #131 ) ;
#204 = CARTESIAN_POINT ( 'NONE',  ( -5.000000000000000000, 1.500000000000000400, -1000.000000000000000 ) ) ;
#205 = DIRECTION ( 'NONE',  ( 0.0000000000000000000, -1.000000000000000000, 0.0000000000000000000 ) ) ;
#206 = CARTESIAN_POINT ( 'NONE',  ( 0.0000000000000000000, 0.0000000000000000000, -1000.000000000000000 ) ) ;
#207 = DIRECTION ( 'NONE',  ( -0.0000000000000000000, 0.0000000000000000000, 1.000000000000000000 ) ) ;
#208 = DIRECTION ( 'NONE',  ( 1.000000000000000000, 0.0000000000000000000, 0.0000000000000000000 ) ) ;
#209 = PLANE ( 'NONE',  #68 ) ;
#210 = CARTESIAN_POINT ( 'NONE',  ( 0.0000000000000000000, 0.0000000000000000000, 1000.000000000000000 ) ) ;
#211 = DIRECTION ( 'NONE',  ( -0.0000000000000000000, 0.0000000000000000000, 1.000000000000000000 ) ) ;
#212 = UNCERTAINTY_MEASURE_WITH_UNIT (LENGTH_MEASURE( 1.000000000000000100E-005 ), #164, 'distance_accuracy_value', 'NONE');
#213 = PERSON ( 'UNSPECIFIED', 'UNSPECIFIED', 'UNSPECIFIED', ('UNSPECIFIED'), ('UNSPECIFIED'), ('UNSPECIFIED') ) ;
#214 = ADVANCED_BREP_SHAPE_REPRESENTATION ( 'sone3D', ( #235, #37 ), #66 ) ;
#215 = ORIENTED_EDGE ( 'NONE', *, *, #146, .T. ) ;
#216 = CC_DESIGN_PERSON_AND_ORGANIZATION_ASSIGNMENT ( #18, #19, ( #140 ) ) ;
#217 = CC_DESIGN_PERSON_AND_ORGANIZATION_ASSIGNMENT ( #16, #17, ( #140 ) ) ;
#218 = ORIENTED_EDGE ( 'NONE', *, *, #42, .T. ) ;
#219 = ORIENTED_EDGE ( 'NONE', *, *, #89, .T. ) ;
#220 = ORIENTED_EDGE ( 'NONE', *, *, #47, .T. ) ;
#221 = ORIENTED_EDGE ( 'NONE', *, *, #147, .F. ) ;
#222 = ORIENTED_EDGE ( 'NONE', *, *, #44, .F. ) ;
#223 = ORIENTED_EDGE ( 'NONE', *, *, #150, .F. ) ;
#224 = ORIENTED_EDGE ( 'NONE', *, *, #91, .F. ) ;
#225 = VERTEX_POINT ( 'NONE', #160 ) ;
#226 = VERTEX_POINT ( 'NONE', #161 ) ;
#227 = VERTEX_POINT ( 'NONE', #162 ) ;
#228 = VERTEX_POINT ( 'NONE', #163 ) ;
#229 = ORIENTED_EDGE ( 'NONE', *, *, #89, .F. ) ;
#230 = ORIENTED_EDGE ( 'NONE', *, *, #40, .F. ) ;
#231 = ORIENTED_EDGE ( 'NONE', *, *, #43, .T. ) ;
#232 = ORIENTED_EDGE ( 'NONE', *, *, #91, .T. ) ;
#233 = ORIENTED_EDGE ( 'NONE', *, *, #47, .F. ) ;
#234 = ORIENTED_EDGE ( 'NONE', *, *, #90, .F. ) ;
#235 = MANIFOLD_SOLID_BREP ( 'ÎÞ½ - µoµ1', #86 ) ;
#236 = DESIGN_CONTEXT ( 'detailed design', #129, 'design' ) ;
#237 = PRODUCT_DEFINITION_SHAPE ( 'NONE', 'NONE',  #38 ) ;
ENDSEC;
END-ISO-10303-21;
