ISO-10303-21;
HEADER;
FILE_DESCRIPTION (( 'STEP AP203' ),
    '1' );
FILE_NAME ('sone3D.STEP',
    '2013-05-13T02:02:56',
    ( '' ),
    ( '' ),
    'SwSTEP 2.0',
    'SolidWorks 2012',
    '' );
FILE_SCHEMA (( 'CONFIG_CONTROL_DESIGN' ));
ENDSEC;

DATA;
#1 = PRODUCT_DEFINITION ( 'UNKNOWN', '', #197, #19 ) ;
#2 = APPROVAL ( #144, 'UNSPECIFIED' ) ;
#3 = LOCAL_TIME ( 11, 2, 56.00000000000000000, #192 ) ;
#4 = CC_DESIGN_PERSON_AND_ORGANIZATION_ASSIGNMENT ( #148, #149, ( #1 ) ) ;
#5 = LOCAL_TIME ( 11, 2, 56.00000000000000000, #195 ) ;
#6 = CC_DESIGN_DATE_AND_TIME_ASSIGNMENT ( #150, #151, ( #1 ) ) ;
#7 = APPROVAL ( #153, 'UNSPECIFIED' ) ;
#8 = LOCAL_TIME ( 11, 2, 56.00000000000000000, #199 ) ;
#9 = CC_DESIGN_PERSON_AND_ORGANIZATION_ASSIGNMENT ( #157, #158, ( #197 ) ) ;
#10 = CC_DESIGN_PERSON_AND_ORGANIZATION_ASSIGNMENT ( #159, #160, ( #197 ) ) ;
#11 = CC_DESIGN_PERSON_AND_ORGANIZATION_ASSIGNMENT ( #162, #163, ( #202 ) ) ;
#12 = LOCAL_TIME ( 11, 2, 56.00000000000000000, #203 ) ;
#13 = CC_DESIGN_DATE_AND_TIME_ASSIGNMENT ( #164, #165, ( #202 ) ) ;
#14 = APPROVAL ( #167, 'UNSPECIFIED' ) ;
#15 = LOCAL_TIME ( 11, 2, 56.00000000000000000, #206 ) ;
#16 = PRODUCT_RELATED_PRODUCT_CATEGORY ( 'detail', '', ( #234 ) ) ;
#17 = PRODUCT_DEFINITION_SHAPE ( 'NONE', 'NONE',  #1 ) ;
#18 = MANIFOLD_SOLID_BREP ( 'ÎÞ½ - µoµ1', #36 ) ;
#19 = DESIGN_CONTEXT ( 'detailed design', #235, 'design' ) ;
#20 = EDGE_CURVE ( 'NONE', #56, #61, #63, .T. ) ;
#21 = EDGE_CURVE ( 'NONE', #57, #55, #67, .T. ) ;
#22 = EDGE_CURVE ( 'NONE', #60, #59, #70, .T. ) ;
#23 = EDGE_CURVE ( 'NONE', #61, #60, #73, .T. ) ;
#24 = CC_DESIGN_PERSON_AND_ORGANIZATION_ASSIGNMENT ( #140, #141, ( #234 ) ) ;
#25 = EDGE_CURVE ( 'NONE', #62, #61, #76, .T. ) ;
#26 = EDGE_CURVE ( 'NONE', #55, #56, #79, .T. ) ;
#27 = EDGE_CURVE ( 'NONE', #59, #62, #82, .T. ) ;
#28 = EDGE_CURVE ( 'NONE', #55, #62, #85, .T. ) ;
#29 = EDGE_CURVE ( 'NONE', #58, #57, #88, .T. ) ;
#30 = EDGE_CURVE ( 'NONE', #57, #59, #91, .T. ) ;
#31 = AXIS2_PLACEMENT_3D ( 'NONE', #117, #118, #119 ) ;
#32 = FACE_OUTER_BOUND ( 'NONE', #52, .T. ) ;
#33 = AXIS2_PLACEMENT_3D ( 'NONE', #102, #103, #104 ) ;
#34 = VECTOR ( 'NONE', #72, 1000.000000000000000 ) ;
#35 = VECTOR ( 'NONE', #65, 1000.000000000000000 ) ;
#36 = CLOSED_SHELL ( 'NONE', ( #179, #181, #178, #172, #173, #171 ) ) ;
#37 = VECTOR ( 'NONE', #78, 1000.000000000000000 ) ;
#38 = VECTOR ( 'NONE', #75, 1000.000000000000000 ) ;
#39 = VECTOR ( 'NONE', #81, 1000.000000000000000 ) ;
#40 = VECTOR ( 'NONE', #69, 1000.000000000000000 ) ;
#41 = FACE_OUTER_BOUND ( 'NONE', #49, .T. ) ;
#42 = FACE_OUTER_BOUND ( 'NONE', #50, .T. ) ;
#43 = ORIENTED_EDGE ( 'NONE', *, *, #180, .F. ) ;
#44 = ORIENTED_EDGE ( 'NONE', *, *, #27, .F. ) ;
#45 = ORIENTED_EDGE ( 'NONE', *, *, #23, .T. ) ;
#46 = ORIENTED_EDGE ( 'NONE', *, *, #20, .T. ) ;
#47 = ORIENTED_EDGE ( 'NONE', *, *, #177, .F. ) ;
#48 = ORIENTED_EDGE ( 'NONE', *, *, #22, .T. ) ;
#49 = EDGE_LOOP ( 'NONE', ( #218, #213, #44, #212 ) ) ;
#50 = EDGE_LOOP ( 'NONE', ( #214, #223, #209, #217 ) ) ;
#51 = EDGE_LOOP ( 'NONE', ( #220, #221, #224, #216 ) ) ;
#52 = EDGE_LOOP ( 'NONE', ( #45, #47, #43, #46 ) ) ;
#53 = EDGE_LOOP ( 'NONE', ( #215, #211, #222, #225 ) ) ;
#54 = EDGE_LOOP ( 'NONE', ( #48, #219, #210, #208 ) ) ;
#55 = VERTEX_POINT ( 'NONE', #66 ) ;
#56 = VERTEX_POINT ( 'NONE', #94 ) ;
#57 = VERTEX_POINT ( 'NONE', #95 ) ;
#58 = VERTEX_POINT ( 'NONE', #96 ) ;
#59 = VERTEX_POINT ( 'NONE', #97 ) ;
#60 = VERTEX_POINT ( 'NONE', #98 ) ;
#61 = VERTEX_POINT ( 'NONE', #99 ) ;
#62 = VERTEX_POINT ( 'NONE', #100 ) ;
#63 = LINE ( 'NONE', #64, #35 ) ;
#64 = CARTESIAN_POINT ( 'NONE',  ( -9.999999999999998200, 7.500000000000001800, 1000.000000000000000 ) ) ;
#65 = DIRECTION ( 'NONE',  ( -0.0000000000000000000, -0.0000000000000000000, -1.000000000000000000 ) ) ;
#66 = CARTESIAN_POINT ( 'NONE',  ( 10.00000000000000200, 7.500000000000000000, 1000.000000000000000 ) ) ;
#67 = LINE ( 'NONE', #68, #40 ) ;
#68 = CARTESIAN_POINT ( 'NONE',  ( 10.00000000000000200, 7.500000000000000000, 1000.000000000000000 ) ) ;
#69 = DIRECTION ( 'NONE',  ( 1.156482317317871500E-016, 1.000000000000000000, -0.0000000000000000000 ) ) ;
#70 = LINE ( 'NONE', #71, #34 ) ;
#71 = CARTESIAN_POINT ( 'NONE',  ( -9.999999999999998200, -7.500000000000001800, -1000.000000000000000 ) ) ;
#72 = DIRECTION ( 'NONE',  ( 1.000000000000000000, 8.673617379884036700E-017, 0.0000000000000000000 ) ) ;
#73 = LINE ( 'NONE', #74, #38 ) ;
#74 = CARTESIAN_POINT ( 'NONE',  ( -9.999999999999998200, 7.500000000000001800, -1000.000000000000000 ) ) ;
#75 = DIRECTION ( 'NONE',  ( 0.0000000000000000000, -1.000000000000000000, 0.0000000000000000000 ) ) ;
#76 = LINE ( 'NONE', #77, #37 ) ;
#77 = CARTESIAN_POINT ( 'NONE',  ( -9.999999999999998200, 7.500000000000001800, -1000.000000000000000 ) ) ;
#78 = DIRECTION ( 'NONE',  ( -1.000000000000000000, 8.673617379884035500E-017, -0.0000000000000000000 ) ) ;
#79 = LINE ( 'NONE', #80, #39 ) ;
#80 = CARTESIAN_POINT ( 'NONE',  ( -9.999999999999998200, 7.500000000000001800, 1000.000000000000000 ) ) ;
#81 = DIRECTION ( 'NONE',  ( -1.000000000000000000, 8.673617379884035500E-017, -0.0000000000000000000 ) ) ;
#82 = LINE ( 'NONE', #83, #184 ) ;
#83 = CARTESIAN_POINT ( 'NONE',  ( 10.00000000000000200, 7.500000000000000000, -1000.000000000000000 ) ) ;
#84 = DIRECTION ( 'NONE',  ( 1.156482317317871500E-016, 1.000000000000000000, -0.0000000000000000000 ) ) ;
#85 = LINE ( 'NONE', #86, #185 ) ;
#86 = CARTESIAN_POINT ( 'NONE',  ( 10.00000000000000200, 7.500000000000000000, 1000.000000000000000 ) ) ;
#87 = DIRECTION ( 'NONE',  ( -0.0000000000000000000, -0.0000000000000000000, -1.000000000000000000 ) ) ;
#88 = LINE ( 'NONE', #89, #226 ) ;
#89 = CARTESIAN_POINT ( 'NONE',  ( -9.999999999999998200, -7.500000000000001800, 1000.000000000000000 ) ) ;
#90 = DIRECTION ( 'NONE',  ( 1.000000000000000000, 8.673617379884036700E-017, 0.0000000000000000000 ) ) ;
#91 = LINE ( 'NONE', #92, #228 ) ;
#92 = CARTESIAN_POINT ( 'NONE',  ( 10.00000000000000000, -7.500000000000000000, 1000.000000000000000 ) ) ;
#93 = DIRECTION ( 'NONE',  ( -0.0000000000000000000, -0.0000000000000000000, -1.000000000000000000 ) ) ;
#94 = CARTESIAN_POINT ( 'NONE',  ( -9.999999999999998200, 7.500000000000001800, 1000.000000000000000 ) ) ;
#95 = CARTESIAN_POINT ( 'NONE',  ( 10.00000000000000000, -7.500000000000000000, 1000.000000000000000 ) ) ;
#96 = CARTESIAN_POINT ( 'NONE',  ( -9.999999999999998200, -7.500000000000001800, 1000.000000000000000 ) ) ;
#97 = CARTESIAN_POINT ( 'NONE',  ( 10.00000000000000000, -7.500000000000000000, -1000.000000000000000 ) ) ;
#98 = CARTESIAN_POINT ( 'NONE',  ( -9.999999999999998200, -7.500000000000001800, -1000.000000000000000 ) ) ;
#99 = CARTESIAN_POINT ( 'NONE',  ( -9.999999999999998200, 7.500000000000001800, -1000.000000000000000 ) ) ;
#100 = CARTESIAN_POINT ( 'NONE',  ( 10.00000000000000200, 7.500000000000000000, -1000.000000000000000 ) ) ;
#101 = PLANE ( 'NONE',  #33 ) ;
#102 = CARTESIAN_POINT ( 'NONE',  ( 0.0000000000000000000, 0.0000000000000000000, -1000.000000000000000 ) ) ;
#103 = DIRECTION ( 'NONE',  ( -0.0000000000000000000, 0.0000000000000000000, 1.000000000000000000 ) ) ;
#104 = DIRECTION ( 'NONE',  ( 1.000000000000000000, 0.0000000000000000000, 0.0000000000000000000 ) ) ;
#105 = PLANE ( 'NONE',  #227 ) ;
#106 = CARTESIAN_POINT ( 'NONE',  ( -9.999999999999998200, 7.500000000000001800, 1000.000000000000000 ) ) ;
#107 = DIRECTION ( 'NONE',  ( -8.673617379884035500E-017, -1.000000000000000000, 0.0000000000000000000 ) ) ;
#108 = DIRECTION ( 'NONE',  ( 1.000000000000000000, -8.673617379884035500E-017, 0.0000000000000000000 ) ) ;
#109 = PLANE ( 'NONE',  #168 ) ;
#110 = CARTESIAN_POINT ( 'NONE',  ( 0.0000000000000000000, 0.0000000000000000000, 1000.000000000000000 ) ) ;
#111 = DIRECTION ( 'NONE',  ( -0.0000000000000000000, 0.0000000000000000000, 1.000000000000000000 ) ) ;
#112 = DIRECTION ( 'NONE',  ( 1.000000000000000000, 0.0000000000000000000, 0.0000000000000000000 ) ) ;
#113 = LINE ( 'NONE', #114, #232 ) ;
#114 = CARTESIAN_POINT ( 'NONE',  ( -9.999999999999998200, -7.500000000000001800, 1000.000000000000000 ) ) ;
#115 = DIRECTION ( 'NONE',  ( -0.0000000000000000000, -0.0000000000000000000, -1.000000000000000000 ) ) ;
#116 = PLANE ( 'NONE',  #31 ) ;
#117 = CARTESIAN_POINT ( 'NONE',  ( 10.00000000000000200, 7.500000000000000000, 1000.000000000000000 ) ) ;
#118 = DIRECTION ( 'NONE',  ( -1.000000000000000000, 1.156482317317871500E-016, 0.0000000000000000000 ) ) ;
#119 = DIRECTION ( 'NONE',  ( -1.156482317317871500E-016, -1.000000000000000000, 0.0000000000000000000 ) ) ;
#120 = PLANE ( 'NONE',  #237 ) ;
#121 = CARTESIAN_POINT ( 'NONE',  ( -9.999999999999998200, 7.500000000000001800, 1000.000000000000000 ) ) ;
#122 = DIRECTION ( 'NONE',  ( 1.000000000000000000, 0.0000000000000000000, -0.0000000000000000000 ) ) ;
#123 = DIRECTION ( 'NONE',  ( -0.0000000000000000000, 0.0000000000000000000, -1.000000000000000000 ) ) ;
#124 = LINE ( 'NONE', #125, #188 ) ;
#125 = CARTESIAN_POINT ( 'NONE',  ( -9.999999999999998200, 7.500000000000001800, 1000.000000000000000 ) ) ;
#126 = DIRECTION ( 'NONE',  ( 0.0000000000000000000, -1.000000000000000000, 0.0000000000000000000 ) ) ;
#127 = PLANE ( 'NONE',  #186 ) ;
#128 = CARTESIAN_POINT ( 'NONE',  ( -9.999999999999998200, -7.500000000000001800, 1000.000000000000000 ) ) ;
#129 = DIRECTION ( 'NONE',  ( -8.673617379884036700E-017, 1.000000000000000000, 0.0000000000000000000 ) ) ;
#130 = DIRECTION ( 'NONE',  ( -1.000000000000000000, -8.673617379884036700E-017, 0.0000000000000000000 ) ) ;
#131 =( LENGTH_UNIT ( ) NAMED_UNIT ( * ) SI_UNIT ( .MILLI., .METRE. ) );
#132 =( NAMED_UNIT ( * ) PLANE_ANGLE_UNIT ( ) SI_UNIT ( $, .RADIAN. ) );
#133 =( NAMED_UNIT ( * ) SI_UNIT ( $, .STERADIAN. ) SOLID_ANGLE_UNIT ( ) );
#134 = APPLICATION_PROTOCOL_DEFINITION ( 'international standard', 'config_control_design', 1994, #236 ) ;
#135 = CARTESIAN_POINT ( 'NONE',  ( 0.0000000000000000000, 0.0000000000000000000, 0.0000000000000000000 ) ) ;
#136 = DIRECTION ( 'NONE',  ( 0.0000000000000000000, 0.0000000000000000000, 1.000000000000000000 ) ) ;
#137 = DIRECTION ( 'NONE',  ( 1.000000000000000000, 0.0000000000000000000, 0.0000000000000000000 ) ) ;
#138 = SHAPE_DEFINITION_REPRESENTATION ( #17, #176 ) ;
#139 = MECHANICAL_CONTEXT ( 'NONE', #236, 'mechanical' ) ;
#140 = PERSON_AND_ORGANIZATION ( #174, #190 ) ;
#141 = PERSON_AND_ORGANIZATION_ROLE ( 'design_owner' ) ;
#142 = APPLICATION_PROTOCOL_DEFINITION ( 'international standard', 'config_control_design', 1994, #235 ) ;
#143 = PERSON_AND_ORGANIZATION ( #174, #190 ) ;
#144 = APPROVAL_STATUS ( 'not_yet_approved' ) ;
#145 = APPROVAL_ROLE ( '' ) ;
#146 = DATE_AND_TIME ( #193, #3 ) ;
#147 = APPROVAL_DATE_TIME ( #146, #2 ) ;
#148 = PERSON_AND_ORGANIZATION ( #174, #190 ) ;
#149 = PERSON_AND_ORGANIZATION_ROLE ( 'creator' ) ;
#150 = DATE_AND_TIME ( #196, #5 ) ;
#151 = DATE_TIME_ROLE ( 'creation_date' ) ;
#152 = PERSON_AND_ORGANIZATION ( #174, #190 ) ;
#153 = APPROVAL_STATUS ( 'not_yet_approved' ) ;
#154 = APPROVAL_ROLE ( '' ) ;
#155 = DATE_AND_TIME ( #200, #8 ) ;
#156 = APPROVAL_DATE_TIME ( #155, #7 ) ;
#157 = PERSON_AND_ORGANIZATION ( #174, #190 ) ;
#158 = PERSON_AND_ORGANIZATION_ROLE ( 'creator' ) ;
#159 = PERSON_AND_ORGANIZATION ( #174, #190 ) ;
#160 = PERSON_AND_ORGANIZATION_ROLE ( 'design_supplier' ) ;
#161 = SECURITY_CLASSIFICATION_LEVEL ( 'unclassified' ) ;
#162 = PERSON_AND_ORGANIZATION ( #174, #190 ) ;
#163 = PERSON_AND_ORGANIZATION_ROLE ( 'classification_officer' ) ;
#164 = DATE_AND_TIME ( #204, #12 ) ;
#165 = DATE_TIME_ROLE ( 'classification_date' ) ;
#166 = PERSON_AND_ORGANIZATION ( #174, #190 ) ;
#167 = APPROVAL_STATUS ( 'not_yet_approved' ) ;
#168 = AXIS2_PLACEMENT_3D ( 'NONE', #110, #111, #112 ) ;
#169 = CC_DESIGN_APPROVAL ( #14, ( #202 ) ) ;
#170 = FACE_OUTER_BOUND ( 'NONE', #53, .T. ) ;
#171 = ADVANCED_FACE ( 'NONE', ( #41 ), #101, .F. ) ;
#172 = ADVANCED_FACE ( 'NONE', ( #233 ), #105, .F. ) ;
#173 = ADVANCED_FACE ( 'NONE', ( #42 ), #109, .T. ) ;
#174 = PERSON ( 'UNSPECIFIED', 'UNSPECIFIED', 'UNSPECIFIED', ('UNSPECIFIED'), ('UNSPECIFIED'), ('UNSPECIFIED') ) ;
#175 = UNCERTAINTY_MEASURE_WITH_UNIT (LENGTH_MEASURE( 1.000000000000000100E-005 ), #131, 'distance_accuracy_value', 'NONE');
#176 = ADVANCED_BREP_SHAPE_REPRESENTATION ( 'sone3D', ( #18, #189 ), #183 ) ;
#177 = EDGE_CURVE ( 'NONE', #58, #60, #113, .T. ) ;
#178 = ADVANCED_FACE ( 'NONE', ( #170 ), #116, .F. ) ;
#179 = ADVANCED_FACE ( 'NONE', ( #32 ), #120, .F. ) ;
#180 = EDGE_CURVE ( 'NONE', #56, #58, #124, .T. ) ;
#181 = ADVANCED_FACE ( 'NONE', ( #187 ), #127, .F. ) ;
#182 = CC_DESIGN_SECURITY_CLASSIFICATION ( #202, ( #197 ) ) ;
#183 =( GEOMETRIC_REPRESENTATION_CONTEXT ( 3 ) GLOBAL_UNCERTAINTY_ASSIGNED_CONTEXT ( ( #175 ) ) GLOBAL_UNIT_ASSIGNED_CONTEXT ( ( #131, #132, #133 ) ) REPRESENTATION_CONTEXT ( 'NONE', 'WORKASPACE' ) );
#184 = VECTOR ( 'NONE', #84, 1000.000000000000000 ) ;
#185 = VECTOR ( 'NONE', #87, 1000.000000000000000 ) ;
#186 = AXIS2_PLACEMENT_3D ( 'NONE', #128, #129, #130 ) ;
#187 = FACE_OUTER_BOUND ( 'NONE', #54, .T. ) ;
#188 = VECTOR ( 'NONE', #126, 1000.000000000000000 ) ;
#189 = AXIS2_PLACEMENT_3D ( 'NONE', #135, #136, #137 ) ;
#190 = ORGANIZATION ( 'UNSPECIFIED', 'UNSPECIFIED', '' ) ;
#191 = APPROVAL_PERSON_ORGANIZATION ( #143, #2, #145 ) ;
#192 = COORDINATED_UNIVERSAL_TIME_OFFSET ( 9, 0, .AHEAD. ) ;
#193 = CALENDAR_DATE ( 2013, 13, 5 ) ;
#194 = CC_DESIGN_APPROVAL ( #2, ( #1 ) ) ;
#195 = COORDINATED_UNIVERSAL_TIME_OFFSET ( 9, 0, .AHEAD. ) ;
#196 = CALENDAR_DATE ( 2013, 13, 5 ) ;
#197 = PRODUCT_DEFINITION_FORMATION_WITH_SPECIFIED_SOURCE ( 'ANY', '', #234, .NOT_KNOWN. ) ;
#198 = APPROVAL_PERSON_ORGANIZATION ( #152, #7, #154 ) ;
#199 = COORDINATED_UNIVERSAL_TIME_OFFSET ( 9, 0, .AHEAD. ) ;
#200 = CALENDAR_DATE ( 2013, 13, 5 ) ;
#201 = CC_DESIGN_APPROVAL ( #7, ( #197 ) ) ;
#202 = SECURITY_CLASSIFICATION ( '', '', #161 ) ;
#203 = COORDINATED_UNIVERSAL_TIME_OFFSET ( 9, 0, .AHEAD. ) ;
#204 = CALENDAR_DATE ( 2013, 13, 5 ) ;
#205 = APPROVAL_PERSON_ORGANIZATION ( #166, #14, #231 ) ;
#206 = COORDINATED_UNIVERSAL_TIME_OFFSET ( 9, 0, .AHEAD. ) ;
#207 = CALENDAR_DATE ( 2013, 13, 5 ) ;
#208 = ORIENTED_EDGE ( 'NONE', *, *, #177, .T. ) ;
#209 = ORIENTED_EDGE ( 'NONE', *, *, #21, .T. ) ;
#210 = ORIENTED_EDGE ( 'NONE', *, *, #29, .F. ) ;
#211 = ORIENTED_EDGE ( 'NONE', *, *, #28, .F. ) ;
#212 = ORIENTED_EDGE ( 'NONE', *, *, #22, .F. ) ;
#213 = ORIENTED_EDGE ( 'NONE', *, *, #25, .F. ) ;
#214 = ORIENTED_EDGE ( 'NONE', *, *, #180, .T. ) ;
#215 = ORIENTED_EDGE ( 'NONE', *, *, #27, .T. ) ;
#216 = ORIENTED_EDGE ( 'NONE', *, *, #28, .T. ) ;
#217 = ORIENTED_EDGE ( 'NONE', *, *, #26, .T. ) ;
#218 = ORIENTED_EDGE ( 'NONE', *, *, #23, .F. ) ;
#219 = ORIENTED_EDGE ( 'NONE', *, *, #30, .F. ) ;
#220 = ORIENTED_EDGE ( 'NONE', *, *, #25, .T. ) ;
#221 = ORIENTED_EDGE ( 'NONE', *, *, #20, .F. ) ;
#222 = ORIENTED_EDGE ( 'NONE', *, *, #21, .F. ) ;
#223 = ORIENTED_EDGE ( 'NONE', *, *, #29, .T. ) ;
#224 = ORIENTED_EDGE ( 'NONE', *, *, #26, .F. ) ;
#225 = ORIENTED_EDGE ( 'NONE', *, *, #30, .T. ) ;
#226 = VECTOR ( 'NONE', #90, 1000.000000000000000 ) ;
#227 = AXIS2_PLACEMENT_3D ( 'NONE', #106, #107, #108 ) ;
#228 = VECTOR ( 'NONE', #93, 1000.000000000000000 ) ;
#229 = APPROVAL_DATE_TIME ( #230, #14 ) ;
#230 = DATE_AND_TIME ( #207, #15 ) ;
#231 = APPROVAL_ROLE ( '' ) ;
#232 = VECTOR ( 'NONE', #115, 1000.000000000000000 ) ;
#233 = FACE_OUTER_BOUND ( 'NONE', #51, .T. ) ;
#234 = PRODUCT ( 'sone3D', 'sone3D', '', ( #139 ) ) ;
#235 = APPLICATION_CONTEXT ( 'configuration controlled 3d designs of mechanical parts and assemblies' ) ;
#236 = APPLICATION_CONTEXT ( 'configuration controlled 3d designs of mechanical parts and assemblies' ) ;
#237 = AXIS2_PLACEMENT_3D ( 'NONE', #121, #122, #123 ) ;
ENDSEC;
END-ISO-10303-21;
