ISO-10303-21;
HEADER;
FILE_DESCRIPTION (( 'STEP AP203' ),
    '1' );
FILE_NAME ('sone3D.STEP',
    '2013-05-13T02:00:11',
    ( '' ),
    ( '' ),
    'SwSTEP 2.0',
    'SolidWorks 2012',
    '' );
FILE_SCHEMA (( 'CONFIG_CONTROL_DESIGN' ));
ENDSEC;

DATA;
#1 = ORGANIZATION ( 'UNSPECIFIED', 'UNSPECIFIED', '' ) ;
#2 = APPROVAL_PERSON_ORGANIZATION ( #204, #26, #206 ) ;
#3 = COORDINATED_UNIVERSAL_TIME_OFFSET ( 9, 0, .AHEAD. ) ;
#4 = CALENDAR_DATE ( 2013, 13, 5 ) ;
#5 = CC_DESIGN_APPROVAL ( #26, ( #22 ) ) ;
#6 = COORDINATED_UNIVERSAL_TIME_OFFSET ( 9, 0, .AHEAD. ) ;
#7 = CALENDAR_DATE ( 2013, 13, 5 ) ;
#8 = PRODUCT_DEFINITION_FORMATION_WITH_SPECIFIED_SOURCE ( 'ANY', '', #234, .NOT_KNOWN. ) ;
#9 = APPROVAL_PERSON_ORGANIZATION ( #213, #29, #215 ) ;
#10 = COORDINATED_UNIVERSAL_TIME_OFFSET ( 9, 0, .AHEAD. ) ;
#11 = CALENDAR_DATE ( 2013, 13, 5 ) ;
#12 = CC_DESIGN_APPROVAL ( #29, ( #8 ) ) ;
#13 = SECURITY_CLASSIFICATION ( '', '', #222 ) ;
#14 = COORDINATED_UNIVERSAL_TIME_OFFSET ( 9, 0, .AHEAD. ) ;
#15 = CALENDAR_DATE ( 2013, 13, 5 ) ;
#16 = APPROVAL_PERSON_ORGANIZATION ( #227, #79, #229 ) ;
#17 = COORDINATED_UNIVERSAL_TIME_OFFSET ( 9, 0, .AHEAD. ) ;
#18 = CALENDAR_DATE ( 2013, 13, 5 ) ;
#19 = CC_DESIGN_APPROVAL ( #79, ( #13 ) ) ;
#20 = CC_DESIGN_SECURITY_CLASSIFICATION ( #13, ( #8 ) ) ;
#21 = EDGE_CURVE ( 'NONE', #114, #119, #124, .T. ) ;
#22 = PRODUCT_DEFINITION ( 'UNKNOWN', '', #8, #73 ) ;
#23 = ADVANCED_FACE ( 'NONE', ( #82 ), #127, .F. ) ;
#24 = ADVANCED_FACE ( 'NONE', ( #115 ), #131, .F. ) ;
#25 = ADVANCED_FACE ( 'NONE', ( #237 ), #135, .T. ) ;
#26 = APPROVAL ( #205, 'UNSPECIFIED' ) ;
#27 = CC_DESIGN_PERSON_AND_ORGANIZATION_ASSIGNMENT ( #201, #202, ( #234 ) ) ;
#28 = CC_DESIGN_PERSON_AND_ORGANIZATION_ASSIGNMENT ( #218, #219, ( #8 ) ) ;
#29 = APPROVAL ( #214, 'UNSPECIFIED' ) ;
#30 = LOCAL_TIME ( 11, 0, 11.00000000000000000, #3 ) ;
#31 = CC_DESIGN_PERSON_AND_ORGANIZATION_ASSIGNMENT ( #209, #210, ( #22 ) ) ;
#32 = LOCAL_TIME ( 11, 0, 11.00000000000000000, #6 ) ;
#33 = LOCAL_TIME ( 11, 0, 11.00000000000000000, #10 ) ;
#34 = ADVANCED_FACE ( 'NONE', ( #116 ), #139, .F. ) ;
#35 = CC_DESIGN_DATE_AND_TIME_ASSIGNMENT ( #211, #212, ( #22 ) ) ;
#36 = AXIS2_PLACEMENT_3D ( 'NONE', #132, #133, #134 ) ;
#37 = AXIS2_PLACEMENT_3D ( 'NONE', #128, #129, #130 ) ;
#38 = AXIS2_PLACEMENT_3D ( 'NONE', #140, #141, #142 ) ;
#39 = EDGE_CURVE ( 'NONE', #114, #117, #143, .T. ) ;
#40 = EDGE_CURVE ( 'NONE', #117, #123, #147, .T. ) ;
#41 = EDGE_CURVE ( 'NONE', #122, #120, #150, .T. ) ;
#42 = ADVANCED_FACE ( 'NONE', ( #56 ), #146, .F. ) ;
#43 = EDGE_CURVE ( 'NONE', #120, #114, #156, .T. ) ;
#44 = ADVANCED_FACE ( 'NONE', ( #61 ), #159, .F. ) ;
#45 = EDGE_CURVE ( 'NONE', #117, #122, #163, .T. ) ;
#46 = EDGE_CURVE ( 'NONE', #118, #121, #167, .T. ) ;
#47 = EDGE_CURVE ( 'NONE', #122, #118, #170, .T. ) ;
#48 = EDGE_CURVE ( 'NONE', #120, #121, #173, .T. ) ;
#49 = EDGE_CURVE ( 'NONE', #119, #123, #176, .T. ) ;
#50 = EDGE_CURVE ( 'NONE', #121, #119, #179, .T. ) ;
#51 = EDGE_CURVE ( 'NONE', #123, #118, #182, .T. ) ;
#52 = PERSON ( 'UNSPECIFIED', 'UNSPECIFIED', 'UNSPECIFIED', ('UNSPECIFIED'), ('UNSPECIFIED'), ('UNSPECIFIED') ) ;
#53 = ADVANCED_BREP_SHAPE_REPRESENTATION ( 'sone3D', ( #74, #70 ), #71 ) ;
#54 = UNCERTAINTY_MEASURE_WITH_UNIT (LENGTH_MEASURE( 1.000000000000000100E-005 ), #192, 'distance_accuracy_value', 'NONE');
#55 = VECTOR ( 'NONE', #145, 1000.000000000000000 ) ;
#56 = FACE_OUTER_BOUND ( 'NONE', #109, .T. ) ;
#57 = AXIS2_PLACEMENT_3D ( 'NONE', #160, #161, #162 ) ;
#58 = VECTOR ( 'NONE', #149, 1000.000000000000000 ) ;
#59 = AXIS2_PLACEMENT_3D ( 'NONE', #153, #154, #155 ) ;
#60 = VECTOR ( 'NONE', #152, 1000.000000000000000 ) ;
#61 = FACE_OUTER_BOUND ( 'NONE', #88, .T. ) ;
#62 = VECTOR ( 'NONE', #158, 1000.000000000000000 ) ;
#63 = VECTOR ( 'NONE', #165, 1000.000000000000000 ) ;
#64 = VECTOR ( 'NONE', #169, 1000.000000000000000 ) ;
#65 = VECTOR ( 'NONE', #172, 1000.000000000000000 ) ;
#66 = VECTOR ( 'NONE', #175, 1000.000000000000000 ) ;
#67 = VECTOR ( 'NONE', #178, 1000.000000000000000 ) ;
#68 = VECTOR ( 'NONE', #181, 1000.000000000000000 ) ;
#69 = VECTOR ( 'NONE', #184, 1000.000000000000000 ) ;
#70 = AXIS2_PLACEMENT_3D ( 'NONE', #196, #197, #198 ) ;
#71 =( GEOMETRIC_REPRESENTATION_CONTEXT ( 3 ) GLOBAL_UNCERTAINTY_ASSIGNED_CONTEXT ( ( #54 ) ) GLOBAL_UNIT_ASSIGNED_CONTEXT ( ( #192, #193, #194 ) ) REPRESENTATION_CONTEXT ( 'NONE', 'WORKASPACE' ) );
#72 = PRODUCT_DEFINITION_SHAPE ( 'NONE', 'NONE',  #22 ) ;
#73 = DESIGN_CONTEXT ( 'detailed design', #236, 'design' ) ;
#74 = MANIFOLD_SOLID_BREP ( 'ÎÞ½ - µoµ1', #83 ) ;
#75 = CC_DESIGN_PERSON_AND_ORGANIZATION_ASSIGNMENT ( #220, #221, ( #8 ) ) ;
#76 = PRODUCT_RELATED_PRODUCT_CATEGORY ( 'detail', '', ( #234 ) ) ;
#77 = CC_DESIGN_PERSON_AND_ORGANIZATION_ASSIGNMENT ( #223, #224, ( #13 ) ) ;
#78 = LOCAL_TIME ( 11, 0, 11.00000000000000000, #17 ) ;
#79 = APPROVAL ( #228, 'UNSPECIFIED' ) ;
#80 = CC_DESIGN_DATE_AND_TIME_ASSIGNMENT ( #225, #226, ( #13 ) ) ;
#81 = LOCAL_TIME ( 11, 0, 11.00000000000000000, #14 ) ;
#82 = FACE_OUTER_BOUND ( 'NONE', #84, .T. ) ;
#83 = CLOSED_SHELL ( 'NONE', ( #44, #34, #23, #24, #25, #42 ) ) ;
#84 = EDGE_LOOP ( 'NONE', ( #101, #99, #104, #94 ) ) ;
#85 = ORIENTED_EDGE ( 'NONE', *, *, #46, .F. ) ;
#86 = ORIENTED_EDGE ( 'NONE', *, *, #50, .F. ) ;
#87 = EDGE_LOOP ( 'NONE', ( #108, #107, #110, #103 ) ) ;
#88 = EDGE_LOOP ( 'NONE', ( #95, #91, #96, #93 ) ) ;
#89 = ORIENTED_EDGE ( 'NONE', *, *, #41, .T. ) ;
#90 = ORIENTED_EDGE ( 'NONE', *, *, #49, .F. ) ;
#91 = ORIENTED_EDGE ( 'NONE', *, *, #40, .F. ) ;
#92 = ORIENTED_EDGE ( 'NONE', *, *, #51, .F. ) ;
#93 = ORIENTED_EDGE ( 'NONE', *, *, #21, .T. ) ;
#94 = ORIENTED_EDGE ( 'NONE', *, *, #47, .T. ) ;
#95 = ORIENTED_EDGE ( 'NONE', *, *, #49, .T. ) ;
#96 = ORIENTED_EDGE ( 'NONE', *, *, #39, .F. ) ;
#97 = ORIENTED_EDGE ( 'NONE', *, *, #45, .T. ) ;
#98 = ORIENTED_EDGE ( 'NONE', *, *, #48, .T. ) ;
#99 = ORIENTED_EDGE ( 'NONE', *, *, #48, .F. ) ;
#100 = ORIENTED_EDGE ( 'NONE', *, *, #39, .T. ) ;
#101 = ORIENTED_EDGE ( 'NONE', *, *, #46, .T. ) ;
#102 = ORIENTED_EDGE ( 'NONE', *, *, #43, .F. ) ;
#103 = ORIENTED_EDGE ( 'NONE', *, *, #40, .T. ) ;
#104 = ORIENTED_EDGE ( 'NONE', *, *, #41, .F. ) ;
#105 = ORIENTED_EDGE ( 'NONE', *, *, #21, .F. ) ;
#106 = ORIENTED_EDGE ( 'NONE', *, *, #43, .T. ) ;
#107 = ORIENTED_EDGE ( 'NONE', *, *, #47, .F. ) ;
#108 = ORIENTED_EDGE ( 'NONE', *, *, #51, .T. ) ;
#109 = EDGE_LOOP ( 'NONE', ( #90, #86, #85, #92 ) ) ;
#110 = ORIENTED_EDGE ( 'NONE', *, *, #45, .F. ) ;
#111 = EDGE_LOOP ( 'NONE', ( #100, #97, #89, #106 ) ) ;
#112 = EDGE_LOOP ( 'NONE', ( #113, #105, #102, #98 ) ) ;
#113 = ORIENTED_EDGE ( 'NONE', *, *, #50, .T. ) ;
#114 = VERTEX_POINT ( 'NONE', #166 ) ;
#115 = FACE_OUTER_BOUND ( 'NONE', #112, .T. ) ;
#116 = FACE_OUTER_BOUND ( 'NONE', #87, .T. ) ;
#117 = VERTEX_POINT ( 'NONE', #185 ) ;
#118 = VERTEX_POINT ( 'NONE', #186 ) ;
#119 = VERTEX_POINT ( 'NONE', #187 ) ;
#120 = VERTEX_POINT ( 'NONE', #188 ) ;
#121 = VERTEX_POINT ( 'NONE', #189 ) ;
#122 = VERTEX_POINT ( 'NONE', #190 ) ;
#123 = VERTEX_POINT ( 'NONE', #191 ) ;
#124 = LINE ( 'NONE', #125, #232 ) ;
#125 = CARTESIAN_POINT ( 'NONE',  ( -7.499999999999999100, 7.500000000000000000, 1000.000000000000000 ) ) ;
#126 = DIRECTION ( 'NONE',  ( -0.0000000000000000000, -0.0000000000000000000, -1.000000000000000000 ) ) ;
#127 = PLANE ( 'NONE',  #37 ) ;
#128 = CARTESIAN_POINT ( 'NONE',  ( 7.500000000000000900, 7.500000000000000000, 1000.000000000000000 ) ) ;
#129 = DIRECTION ( 'NONE',  ( -1.000000000000000000, 5.782411586589357400E-017, 0.0000000000000000000 ) ) ;
#130 = DIRECTION ( 'NONE',  ( -5.782411586589357400E-017, -1.000000000000000000, 0.0000000000000000000 ) ) ;
#131 = PLANE ( 'NONE',  #36 ) ;
#132 = CARTESIAN_POINT ( 'NONE',  ( -7.499999999999999100, 7.500000000000000000, 1000.000000000000000 ) ) ;
#133 = DIRECTION ( 'NONE',  ( 0.0000000000000000000, -1.000000000000000000, 0.0000000000000000000 ) ) ;
#134 = DIRECTION ( 'NONE',  ( 0.0000000000000000000, -0.0000000000000000000, -1.000000000000000000 ) ) ;
#135 = PLANE ( 'NONE',  #233 ) ;
#136 = CARTESIAN_POINT ( 'NONE',  ( 0.0000000000000000000, 0.0000000000000000000, 1000.000000000000000 ) ) ;
#137 = DIRECTION ( 'NONE',  ( -0.0000000000000000000, 0.0000000000000000000, 1.000000000000000000 ) ) ;
#138 = DIRECTION ( 'NONE',  ( 1.000000000000000000, 0.0000000000000000000, 0.0000000000000000000 ) ) ;
#139 = PLANE ( 'NONE',  #38 ) ;
#140 = CARTESIAN_POINT ( 'NONE',  ( -7.499999999999999100, -7.500000000000000000, 1000.000000000000000 ) ) ;
#141 = DIRECTION ( 'NONE',  ( 0.0000000000000000000, 1.000000000000000000, 0.0000000000000000000 ) ) ;
#142 = DIRECTION ( 'NONE',  ( 0.0000000000000000000, -0.0000000000000000000, 1.000000000000000000 ) ) ;
#143 = LINE ( 'NONE', #144, #55 ) ;
#144 = CARTESIAN_POINT ( 'NONE',  ( -7.499999999999999100, 7.500000000000000000, 1000.000000000000000 ) ) ;
#145 = DIRECTION ( 'NONE',  ( 0.0000000000000000000, -1.000000000000000000, 0.0000000000000000000 ) ) ;
#146 = PLANE ( 'NONE',  #59 ) ;
#147 = LINE ( 'NONE', #148, #58 ) ;
#148 = CARTESIAN_POINT ( 'NONE',  ( -7.499999999999999100, -7.500000000000000000, 1000.000000000000000 ) ) ;
#149 = DIRECTION ( 'NONE',  ( -0.0000000000000000000, -0.0000000000000000000, -1.000000000000000000 ) ) ;
#150 = LINE ( 'NONE', #151, #60 ) ;
#151 = CARTESIAN_POINT ( 'NONE',  ( 7.500000000000000900, 7.500000000000000000, 1000.000000000000000 ) ) ;
#152 = DIRECTION ( 'NONE',  ( 5.782411586589357400E-017, 1.000000000000000000, -0.0000000000000000000 ) ) ;
#153 = CARTESIAN_POINT ( 'NONE',  ( 0.0000000000000000000, 0.0000000000000000000, -1000.000000000000000 ) ) ;
#154 = DIRECTION ( 'NONE',  ( -0.0000000000000000000, 0.0000000000000000000, 1.000000000000000000 ) ) ;
#155 = DIRECTION ( 'NONE',  ( 1.000000000000000000, 0.0000000000000000000, 0.0000000000000000000 ) ) ;
#156 = LINE ( 'NONE', #157, #62 ) ;
#157 = CARTESIAN_POINT ( 'NONE',  ( -7.499999999999999100, 7.500000000000000000, 1000.000000000000000 ) ) ;
#158 = DIRECTION ( 'NONE',  ( -1.000000000000000000, -0.0000000000000000000, -0.0000000000000000000 ) ) ;
#159 = PLANE ( 'NONE',  #57 ) ;
#160 = CARTESIAN_POINT ( 'NONE',  ( -7.499999999999999100, 7.500000000000000000, 1000.000000000000000 ) ) ;
#161 = DIRECTION ( 'NONE',  ( 1.000000000000000000, 0.0000000000000000000, -0.0000000000000000000 ) ) ;
#162 = DIRECTION ( 'NONE',  ( -0.0000000000000000000, 0.0000000000000000000, -1.000000000000000000 ) ) ;
#163 = LINE ( 'NONE', #164, #63 ) ;
#164 = CARTESIAN_POINT ( 'NONE',  ( -7.499999999999999100, -7.500000000000000000, 1000.000000000000000 ) ) ;
#165 = DIRECTION ( 'NONE',  ( 1.000000000000000000, 0.0000000000000000000, 0.0000000000000000000 ) ) ;
#166 = CARTESIAN_POINT ( 'NONE',  ( -7.499999999999999100, 7.500000000000000000, 1000.000000000000000 ) ) ;
#167 = LINE ( 'NONE', #168, #64 ) ;
#168 = CARTESIAN_POINT ( 'NONE',  ( 7.500000000000000900, 7.500000000000000000, -1000.000000000000000 ) ) ;
#169 = DIRECTION ( 'NONE',  ( 5.782411586589357400E-017, 1.000000000000000000, -0.0000000000000000000 ) ) ;
#170 = LINE ( 'NONE', #171, #65 ) ;
#171 = CARTESIAN_POINT ( 'NONE',  ( 7.500000000000000000, -7.500000000000000000, 1000.000000000000000 ) ) ;
#172 = DIRECTION ( 'NONE',  ( -0.0000000000000000000, -0.0000000000000000000, -1.000000000000000000 ) ) ;
#173 = LINE ( 'NONE', #174, #66 ) ;
#174 = CARTESIAN_POINT ( 'NONE',  ( 7.500000000000000900, 7.500000000000000000, 1000.000000000000000 ) ) ;
#175 = DIRECTION ( 'NONE',  ( -0.0000000000000000000, -0.0000000000000000000, -1.000000000000000000 ) ) ;
#176 = LINE ( 'NONE', #177, #67 ) ;
#177 = CARTESIAN_POINT ( 'NONE',  ( -7.499999999999999100, 7.500000000000000000, -1000.000000000000000 ) ) ;
#178 = DIRECTION ( 'NONE',  ( 0.0000000000000000000, -1.000000000000000000, 0.0000000000000000000 ) ) ;
#179 = LINE ( 'NONE', #180, #68 ) ;
#180 = CARTESIAN_POINT ( 'NONE',  ( -7.499999999999999100, 7.500000000000000000, -1000.000000000000000 ) ) ;
#181 = DIRECTION ( 'NONE',  ( -1.000000000000000000, -0.0000000000000000000, -0.0000000000000000000 ) ) ;
#182 = LINE ( 'NONE', #183, #69 ) ;
#183 = CARTESIAN_POINT ( 'NONE',  ( -7.499999999999999100, -7.500000000000000000, -1000.000000000000000 ) ) ;
#184 = DIRECTION ( 'NONE',  ( 1.000000000000000000, 0.0000000000000000000, 0.0000000000000000000 ) ) ;
#185 = CARTESIAN_POINT ( 'NONE',  ( -7.499999999999999100, -7.500000000000000000, 1000.000000000000000 ) ) ;
#186 = CARTESIAN_POINT ( 'NONE',  ( 7.500000000000000000, -7.500000000000000000, -1000.000000000000000 ) ) ;
#187 = CARTESIAN_POINT ( 'NONE',  ( -7.499999999999999100, 7.500000000000000000, -1000.000000000000000 ) ) ;
#188 = CARTESIAN_POINT ( 'NONE',  ( 7.500000000000000900, 7.500000000000000000, 1000.000000000000000 ) ) ;
#189 = CARTESIAN_POINT ( 'NONE',  ( 7.500000000000000900, 7.500000000000000000, -1000.000000000000000 ) ) ;
#190 = CARTESIAN_POINT ( 'NONE',  ( 7.500000000000000000, -7.500000000000000000, 1000.000000000000000 ) ) ;
#191 = CARTESIAN_POINT ( 'NONE',  ( -7.499999999999999100, -7.500000000000000000, -1000.000000000000000 ) ) ;
#192 =( LENGTH_UNIT ( ) NAMED_UNIT ( * ) SI_UNIT ( .MILLI., .METRE. ) );
#193 =( NAMED_UNIT ( * ) PLANE_ANGLE_UNIT ( ) SI_UNIT ( $, .RADIAN. ) );
#194 =( NAMED_UNIT ( * ) SI_UNIT ( $, .STERADIAN. ) SOLID_ANGLE_UNIT ( ) );
#195 = APPLICATION_PROTOCOL_DEFINITION ( 'international standard', 'config_control_design', 1994, #235 ) ;
#196 = CARTESIAN_POINT ( 'NONE',  ( 0.0000000000000000000, 0.0000000000000000000, 0.0000000000000000000 ) ) ;
#197 = DIRECTION ( 'NONE',  ( 0.0000000000000000000, 0.0000000000000000000, 1.000000000000000000 ) ) ;
#198 = DIRECTION ( 'NONE',  ( 1.000000000000000000, 0.0000000000000000000, 0.0000000000000000000 ) ) ;
#199 = SHAPE_DEFINITION_REPRESENTATION ( #72, #53 ) ;
#200 = MECHANICAL_CONTEXT ( 'NONE', #235, 'mechanical' ) ;
#201 = PERSON_AND_ORGANIZATION ( #52, #1 ) ;
#202 = PERSON_AND_ORGANIZATION_ROLE ( 'design_owner' ) ;
#203 = APPLICATION_PROTOCOL_DEFINITION ( 'international standard', 'config_control_design', 1994, #236 ) ;
#204 = PERSON_AND_ORGANIZATION ( #52, #1 ) ;
#205 = APPROVAL_STATUS ( 'not_yet_approved' ) ;
#206 = APPROVAL_ROLE ( '' ) ;
#207 = DATE_AND_TIME ( #4, #30 ) ;
#208 = APPROVAL_DATE_TIME ( #207, #26 ) ;
#209 = PERSON_AND_ORGANIZATION ( #52, #1 ) ;
#210 = PERSON_AND_ORGANIZATION_ROLE ( 'creator' ) ;
#211 = DATE_AND_TIME ( #7, #32 ) ;
#212 = DATE_TIME_ROLE ( 'creation_date' ) ;
#213 = PERSON_AND_ORGANIZATION ( #52, #1 ) ;
#214 = APPROVAL_STATUS ( 'not_yet_approved' ) ;
#215 = APPROVAL_ROLE ( '' ) ;
#216 = DATE_AND_TIME ( #11, #33 ) ;
#217 = APPROVAL_DATE_TIME ( #216, #29 ) ;
#218 = PERSON_AND_ORGANIZATION ( #52, #1 ) ;
#219 = PERSON_AND_ORGANIZATION_ROLE ( 'creator' ) ;
#220 = PERSON_AND_ORGANIZATION ( #52, #1 ) ;
#221 = PERSON_AND_ORGANIZATION_ROLE ( 'design_supplier' ) ;
#222 = SECURITY_CLASSIFICATION_LEVEL ( 'unclassified' ) ;
#223 = PERSON_AND_ORGANIZATION ( #52, #1 ) ;
#224 = PERSON_AND_ORGANIZATION_ROLE ( 'classification_officer' ) ;
#225 = DATE_AND_TIME ( #15, #81 ) ;
#226 = DATE_TIME_ROLE ( 'classification_date' ) ;
#227 = PERSON_AND_ORGANIZATION ( #52, #1 ) ;
#228 = APPROVAL_STATUS ( 'not_yet_approved' ) ;
#229 = APPROVAL_ROLE ( '' ) ;
#230 = DATE_AND_TIME ( #18, #78 ) ;
#231 = APPROVAL_DATE_TIME ( #230, #79 ) ;
#232 = VECTOR ( 'NONE', #126, 1000.000000000000000 ) ;
#233 = AXIS2_PLACEMENT_3D ( 'NONE', #136, #137, #138 ) ;
#234 = PRODUCT ( 'sone3D', 'sone3D', '', ( #200 ) ) ;
#235 = APPLICATION_CONTEXT ( 'configuration controlled 3d designs of mechanical parts and assemblies' ) ;
#236 = APPLICATION_CONTEXT ( 'configuration controlled 3d designs of mechanical parts and assemblies' ) ;
#237 = FACE_OUTER_BOUND ( 'NONE', #111, .T. ) ;
ENDSEC;
END-ISO-10303-21;
