ISO-10303-21;
HEADER;
FILE_DESCRIPTION (( 'STEP AP203' ),
    '1' );
FILE_NAME ('sone3D.STEP',
    '2013-05-13T01:59:24',
    ( '' ),
    ( '' ),
    'SwSTEP 2.0',
    'SolidWorks 2012',
    '' );
FILE_SCHEMA (( 'CONFIG_CONTROL_DESIGN' ));
ENDSEC;

DATA;
#1 = DESIGN_CONTEXT ( 'detailed design', #237, 'design' ) ;
#2 = MANIFOLD_SOLID_BREP ( 'ÎÞ½ - µoµ1', #224 ) ;
#3 = PRODUCT_DEFINITION_SHAPE ( 'NONE', 'NONE',  #114 ) ;
#4 =( NAMED_UNIT ( * ) PLANE_ANGLE_UNIT ( ) SI_UNIT ( $, .RADIAN. ) );
#5 =( NAMED_UNIT ( * ) SI_UNIT ( $, .STERADIAN. ) SOLID_ANGLE_UNIT ( ) );
#6 = SHAPE_DEFINITION_REPRESENTATION ( #3, #93 ) ;
#7 = CARTESIAN_POINT ( 'NONE',  ( 0.0000000000000000000, 0.0000000000000000000, 0.0000000000000000000 ) ) ;
#8 = DIRECTION ( 'NONE',  ( 0.0000000000000000000, 0.0000000000000000000, 1.000000000000000000 ) ) ;
#9 = DIRECTION ( 'NONE',  ( 1.000000000000000000, 0.0000000000000000000, 0.0000000000000000000 ) ) ;
#10 = VECTOR ( 'NONE', #190, 1000.000000000000000 ) ;
#11 = APPLICATION_PROTOCOL_DEFINITION ( 'international standard', 'config_control_design', 1994, #236 ) ;
#12 = DATE_AND_TIME ( #64, #78 ) ;
#13 = APPROVAL_DATE_TIME ( #12, #116 ) ;
#14 = PERSON_AND_ORGANIZATION_ROLE ( 'design_owner' ) ;
#15 = APPROVAL_STATUS ( 'not_yet_approved' ) ;
#16 = PERSON_AND_ORGANIZATION ( #92, #61 ) ;
#17 = APPLICATION_PROTOCOL_DEFINITION ( 'international standard', 'config_control_design', 1994, #237 ) ;
#18 = APPROVAL_ROLE ( '' ) ;
#19 = MECHANICAL_CONTEXT ( 'NONE', #236, 'mechanical' ) ;
#20 = PERSON_AND_ORGANIZATION ( #92, #61 ) ;
#21 = APPROVAL_ROLE ( '' ) ;
#22 = DATE_TIME_ROLE ( 'creation_date' ) ;
#23 = PERSON_AND_ORGANIZATION ( #92, #61 ) ;
#24 = APPROVAL_STATUS ( 'not_yet_approved' ) ;
#25 = PERSON_AND_ORGANIZATION ( #92, #61 ) ;
#26 = PERSON_AND_ORGANIZATION_ROLE ( 'creator' ) ;
#27 = DATE_AND_TIME ( #67, #80 ) ;
#28 =( GEOMETRIC_REPRESENTATION_CONTEXT ( 3 ) GLOBAL_UNCERTAINTY_ASSIGNED_CONTEXT ( ( #94 ) ) GLOBAL_UNIT_ASSIGNED_CONTEXT ( ( #218, #4, #5 ) ) REPRESENTATION_CONTEXT ( 'NONE', 'WORKASPACE' ) );
#29 = ORIENTED_EDGE ( 'NONE', *, *, #115, .T. ) ;
#30 = ORIENTED_EDGE ( 'NONE', *, *, #124, .T. ) ;
#31 = ORIENTED_EDGE ( 'NONE', *, *, #129, .T. ) ;
#32 = ORIENTED_EDGE ( 'NONE', *, *, #125, .T. ) ;
#33 = ORIENTED_EDGE ( 'NONE', *, *, #122, .T. ) ;
#34 = ORIENTED_EDGE ( 'NONE', *, *, #126, .F. ) ;
#35 = ORIENTED_EDGE ( 'NONE', *, *, #115, .F. ) ;
#36 = ORIENTED_EDGE ( 'NONE', *, *, #121, .F. ) ;
#37 = ORIENTED_EDGE ( 'NONE', *, *, #123, .F. ) ;
#38 = EDGE_LOOP ( 'NONE', ( #46, #51, #50, #52 ) ) ;
#39 = ORIENTED_EDGE ( 'NONE', *, *, #129, .F. ) ;
#40 = ORIENTED_EDGE ( 'NONE', *, *, #113, .F. ) ;
#41 = EDGE_LOOP ( 'NONE', ( #31, #32, #33, #160 ) ) ;
#42 = EDGE_LOOP ( 'NONE', ( #162, #161, #163, #30 ) ) ;
#43 = EDGE_LOOP ( 'NONE', ( #35, #36, #37, #34 ) ) ;
#44 = EDGE_LOOP ( 'NONE', ( #53, #48, #54, #47 ) ) ;
#45 = EDGE_LOOP ( 'NONE', ( #29, #40, #39, #49 ) ) ;
#46 = ORIENTED_EDGE ( 'NONE', *, *, #126, .T. ) ;
#47 = ORIENTED_EDGE ( 'NONE', *, *, #127, .T. ) ;
#48 = ORIENTED_EDGE ( 'NONE', *, *, #124, .F. ) ;
#49 = ORIENTED_EDGE ( 'NONE', *, *, #128, .T. ) ;
#50 = ORIENTED_EDGE ( 'NONE', *, *, #125, .F. ) ;
#51 = ORIENTED_EDGE ( 'NONE', *, *, #127, .F. ) ;
#52 = ORIENTED_EDGE ( 'NONE', *, *, #113, .T. ) ;
#53 = ORIENTED_EDGE ( 'NONE', *, *, #123, .T. ) ;
#54 = ORIENTED_EDGE ( 'NONE', *, *, #122, .F. ) ;
#55 = VECTOR ( 'NONE', #193, 1000.000000000000000 ) ;
#56 = VECTOR ( 'NONE', #196, 1000.000000000000000 ) ;
#57 = VECTOR ( 'NONE', #199, 1000.000000000000000 ) ;
#58 = VECTOR ( 'NONE', #202, 1000.000000000000000 ) ;
#59 = FACE_OUTER_BOUND ( 'NONE', #41, .T. ) ;
#60 = AXIS2_PLACEMENT_3D ( 'NONE', #7, #8, #9 ) ;
#61 = ORGANIZATION ( 'UNSPECIFIED', 'UNSPECIFIED', '' ) ;
#62 = APPROVAL_PERSON_ORGANIZATION ( #16, #116, #18 ) ;
#63 = COORDINATED_UNIVERSAL_TIME_OFFSET ( 9, 0, .AHEAD. ) ;
#64 = CALENDAR_DATE ( 2013, 13, 5 ) ;
#65 = CC_DESIGN_APPROVAL ( #116, ( #114 ) ) ;
#66 = COORDINATED_UNIVERSAL_TIME_OFFSET ( 9, 0, .AHEAD. ) ;
#67 = CALENDAR_DATE ( 2013, 13, 5 ) ;
#68 = PRODUCT_DEFINITION_FORMATION_WITH_SPECIFIED_SOURCE ( 'ANY', '', #235, .NOT_KNOWN. ) ;
#69 = APPROVAL_PERSON_ORGANIZATION ( #23, #82, #21 ) ;
#70 = COORDINATED_UNIVERSAL_TIME_OFFSET ( 9, 0, .AHEAD. ) ;
#71 = CALENDAR_DATE ( 2013, 13, 5 ) ;
#72 = CC_DESIGN_APPROVAL ( #82, ( #68 ) ) ;
#73 = SECURITY_CLASSIFICATION ( '', '', #101 ) ;
#74 = COORDINATED_UNIVERSAL_TIME_OFFSET ( 9, 0, .AHEAD. ) ;
#75 = VECTOR ( 'NONE', #141, 1000.000000000000000 ) ;
#76 = AXIS2_PLACEMENT_3D ( 'NONE', #164, #166, #167 ) ;
#77 = VECTOR ( 'NONE', #174, 1000.000000000000000 ) ;
#78 = LOCAL_TIME ( 10, 59, 24.00000000000000000, #63 ) ;
#79 = CC_DESIGN_PERSON_AND_ORGANIZATION_ASSIGNMENT ( #25, #26, ( #114 ) ) ;
#80 = LOCAL_TIME ( 10, 59, 24.00000000000000000, #66 ) ;
#81 = CC_DESIGN_DATE_AND_TIME_ASSIGNMENT ( #27, #22, ( #114 ) ) ;
#82 = APPROVAL ( #24, 'UNSPECIFIED' ) ;
#83 = LOCAL_TIME ( 10, 59, 24.00000000000000000, #70 ) ;
#84 = CC_DESIGN_PERSON_AND_ORGANIZATION_ASSIGNMENT ( #97, #98, ( #68 ) ) ;
#85 = CC_DESIGN_PERSON_AND_ORGANIZATION_ASSIGNMENT ( #99, #100, ( #68 ) ) ;
#86 = CC_DESIGN_PERSON_AND_ORGANIZATION_ASSIGNMENT ( #102, #103, ( #73 ) ) ;
#87 = LOCAL_TIME ( 10, 59, 24.00000000000000000, #74 ) ;
#88 = CC_DESIGN_DATE_AND_TIME_ASSIGNMENT ( #104, #105, ( #73 ) ) ;
#89 = APPROVAL ( #107, 'UNSPECIFIED' ) ;
#90 = LOCAL_TIME ( 10, 59, 24.00000000000000000, #134 ) ;
#91 = PRODUCT_RELATED_PRODUCT_CATEGORY ( 'detail', '', ( #235 ) ) ;
#92 = PERSON ( 'UNSPECIFIED', 'UNSPECIFIED', 'UNSPECIFIED', ('UNSPECIFIED'), ('UNSPECIFIED'), ('UNSPECIFIED') ) ;
#93 = ADVANCED_BREP_SHAPE_REPRESENTATION ( 'sone3D', ( #2, #60 ), #28 ) ;
#94 = UNCERTAINTY_MEASURE_WITH_UNIT (LENGTH_MEASURE( 1.000000000000000100E-005 ), #218, 'distance_accuracy_value', 'NONE');
#95 = DATE_AND_TIME ( #71, #83 ) ;
#96 = APPROVAL_DATE_TIME ( #95, #82 ) ;
#97 = PERSON_AND_ORGANIZATION ( #92, #61 ) ;
#98 = PERSON_AND_ORGANIZATION_ROLE ( 'creator' ) ;
#99 = PERSON_AND_ORGANIZATION ( #92, #61 ) ;
#100 = PERSON_AND_ORGANIZATION_ROLE ( 'design_supplier' ) ;
#101 = SECURITY_CLASSIFICATION_LEVEL ( 'unclassified' ) ;
#102 = PERSON_AND_ORGANIZATION ( #92, #61 ) ;
#103 = PERSON_AND_ORGANIZATION_ROLE ( 'classification_officer' ) ;
#104 = DATE_AND_TIME ( #132, #87 ) ;
#105 = DATE_TIME_ROLE ( 'classification_date' ) ;
#106 = PERSON_AND_ORGANIZATION ( #92, #61 ) ;
#107 = APPROVAL_STATUS ( 'not_yet_approved' ) ;
#108 = APPROVAL_ROLE ( '' ) ;
#109 = DATE_AND_TIME ( #135, #90 ) ;
#110 = APPROVAL_DATE_TIME ( #109, #89 ) ;
#111 = ADVANCED_FACE ( 'NONE', ( #226 ), #151, .F. ) ;
#112 = ADVANCED_FACE ( 'NONE', ( #229 ), #147, .F. ) ;
#113 = EDGE_CURVE ( 'NONE', #159, #152, #143, .T. ) ;
#114 = PRODUCT_DEFINITION ( 'UNKNOWN', '', #68, #1 ) ;
#115 = EDGE_CURVE ( 'NONE', #153, #152, #139, .T. ) ;
#116 = APPROVAL ( #15, 'UNSPECIFIED' ) ;
#117 = ADVANCED_FACE ( 'NONE', ( #227 ), #140, .F. ) ;
#118 = CC_DESIGN_PERSON_AND_ORGANIZATION_ASSIGNMENT ( #20, #14, ( #235 ) ) ;
#119 = ADVANCED_FACE ( 'NONE', ( #225 ), #168, .F. ) ;
#120 = EDGE_CURVE ( 'NONE', #155, #156, #172, .T. ) ;
#121 = EDGE_CURVE ( 'NONE', #157, #153, #176, .T. ) ;
#122 = EDGE_CURVE ( 'NONE', #154, #155, #179, .T. ) ;
#123 = EDGE_CURVE ( 'NONE', #158, #157, #182, .T. ) ;
#124 = EDGE_CURVE ( 'NONE', #155, #157, #185, .T. ) ;
#125 = EDGE_CURVE ( 'NONE', #159, #154, #188, .T. ) ;
#126 = EDGE_CURVE ( 'NONE', #152, #158, #191, .T. ) ;
#127 = EDGE_CURVE ( 'NONE', #154, #158, #194, .T. ) ;
#128 = EDGE_CURVE ( 'NONE', #156, #153, #197, .T. ) ;
#129 = EDGE_CURVE ( 'NONE', #156, #159, #200, .T. ) ;
#130 = ADVANCED_FACE ( 'NONE', ( #228 ), #175, .F. ) ;
#131 = ADVANCED_FACE ( 'NONE', ( #59 ), #206, .T. ) ;
#132 = CALENDAR_DATE ( 2013, 13, 5 ) ;
#133 = APPROVAL_PERSON_ORGANIZATION ( #106, #89, #108 ) ;
#134 = COORDINATED_UNIVERSAL_TIME_OFFSET ( 9, 0, .AHEAD. ) ;
#135 = CALENDAR_DATE ( 2013, 13, 5 ) ;
#136 = CC_DESIGN_APPROVAL ( #89, ( #73 ) ) ;
#137 = CC_DESIGN_SECURITY_CLASSIFICATION ( #73, ( #68 ) ) ;
#138 = CARTESIAN_POINT ( 'NONE',  ( -5.000000000000000000, 7.500000000000001800, -1000.000000000000000 ) ) ;
#139 = LINE ( 'NONE', #138, #219 ) ;
#140 = PLANE ( 'NONE',  #76 ) ;
#141 = DIRECTION ( 'NONE',  ( -0.0000000000000000000, -0.0000000000000000000, -1.000000000000000000 ) ) ;
#142 = CARTESIAN_POINT ( 'NONE',  ( -5.000000000000000000, -7.500000000000001800, 1000.000000000000000 ) ) ;
#143 = LINE ( 'NONE', #142, #75 ) ;
#144 = DIRECTION ( 'NONE',  ( 1.000000000000000000, -1.734723475976807100E-016, 0.0000000000000000000 ) ) ;
#145 = DIRECTION ( 'NONE',  ( -1.734723475976807100E-016, -1.000000000000000000, 0.0000000000000000000 ) ) ;
#146 = CARTESIAN_POINT ( 'NONE',  ( -5.000000000000000000, 7.500000000000001800, 1000.000000000000000 ) ) ;
#147 = PLANE ( 'NONE',  #222 ) ;
#148 = DIRECTION ( 'NONE',  ( -1.000000000000000000, -1.734723475976806800E-016, 0.0000000000000000000 ) ) ;
#149 = DIRECTION ( 'NONE',  ( -1.734723475976806800E-016, 1.000000000000000000, 0.0000000000000000000 ) ) ;
#150 = CARTESIAN_POINT ( 'NONE',  ( -5.000000000000000000, -7.500000000000001800, 1000.000000000000000 ) ) ;
#151 = PLANE ( 'NONE',  #221 ) ;
#152 = VERTEX_POINT ( 'NONE', #210 ) ;
#153 = VERTEX_POINT ( 'NONE', #211 ) ;
#154 = VERTEX_POINT ( 'NONE', #212 ) ;
#155 = VERTEX_POINT ( 'NONE', #213 ) ;
#156 = VERTEX_POINT ( 'NONE', #214 ) ;
#157 = VERTEX_POINT ( 'NONE', #215 ) ;
#158 = VERTEX_POINT ( 'NONE', #216 ) ;
#159 = VERTEX_POINT ( 'NONE', #217 ) ;
#160 = ORIENTED_EDGE ( 'NONE', *, *, #120, .T. ) ;
#161 = ORIENTED_EDGE ( 'NONE', *, *, #128, .F. ) ;
#162 = ORIENTED_EDGE ( 'NONE', *, *, #121, .T. ) ;
#163 = ORIENTED_EDGE ( 'NONE', *, *, #120, .F. ) ;
#164 = CARTESIAN_POINT ( 'NONE',  ( 5.000000000000000000, 7.500000000000000000, 1000.000000000000000 ) ) ;
#165 = DIRECTION ( 'NONE',  ( 0.0000000000000000000, -1.000000000000000000, 0.0000000000000000000 ) ) ;
#166 = DIRECTION ( 'NONE',  ( -1.000000000000000000, -1.156482317317871500E-016, 0.0000000000000000000 ) ) ;
#167 = DIRECTION ( 'NONE',  ( 1.156482317317871500E-016, -1.000000000000000000, 0.0000000000000000000 ) ) ;
#168 = PLANE ( 'NONE',  #220 ) ;
#169 = CARTESIAN_POINT ( 'NONE',  ( -5.000000000000000000, 7.500000000000001800, 1000.000000000000000 ) ) ;
#170 = DIRECTION ( 'NONE',  ( 1.000000000000000000, 0.0000000000000000000, -0.0000000000000000000 ) ) ;
#171 = DIRECTION ( 'NONE',  ( -0.0000000000000000000, 0.0000000000000000000, -1.000000000000000000 ) ) ;
#172 = LINE ( 'NONE', #173, #77 ) ;
#173 = CARTESIAN_POINT ( 'NONE',  ( -5.000000000000000000, 7.500000000000001800, 1000.000000000000000 ) ) ;
#174 = DIRECTION ( 'NONE',  ( -1.000000000000000000, 1.734723475976807100E-016, -0.0000000000000000000 ) ) ;
#175 = PLANE ( 'NONE',  #233 ) ;
#176 = LINE ( 'NONE', #177, #223 ) ;
#177 = CARTESIAN_POINT ( 'NONE',  ( -5.000000000000000000, 7.500000000000001800, -1000.000000000000000 ) ) ;
#178 = DIRECTION ( 'NONE',  ( -1.000000000000000000, 1.734723475976807100E-016, -0.0000000000000000000 ) ) ;
#179 = LINE ( 'NONE', #180, #230 ) ;
#180 = CARTESIAN_POINT ( 'NONE',  ( 5.000000000000000000, 7.500000000000000000, 1000.000000000000000 ) ) ;
#181 = DIRECTION ( 'NONE',  ( -1.156482317317871500E-016, 1.000000000000000000, -0.0000000000000000000 ) ) ;
#182 = LINE ( 'NONE', #183, #232 ) ;
#183 = CARTESIAN_POINT ( 'NONE',  ( 5.000000000000000000, 7.500000000000000000, -1000.000000000000000 ) ) ;
#184 = DIRECTION ( 'NONE',  ( -1.156482317317871500E-016, 1.000000000000000000, -0.0000000000000000000 ) ) ;
#185 = LINE ( 'NONE', #186, #234 ) ;
#186 = CARTESIAN_POINT ( 'NONE',  ( 5.000000000000000000, 7.500000000000000000, 1000.000000000000000 ) ) ;
#187 = DIRECTION ( 'NONE',  ( -0.0000000000000000000, -0.0000000000000000000, -1.000000000000000000 ) ) ;
#188 = LINE ( 'NONE', #189, #10 ) ;
#189 = CARTESIAN_POINT ( 'NONE',  ( -5.000000000000000000, -7.500000000000001800, 1000.000000000000000 ) ) ;
#190 = DIRECTION ( 'NONE',  ( 1.000000000000000000, 1.734723475976806800E-016, 0.0000000000000000000 ) ) ;
#191 = LINE ( 'NONE', #192, #55 ) ;
#192 = CARTESIAN_POINT ( 'NONE',  ( -5.000000000000000000, -7.500000000000001800, -1000.000000000000000 ) ) ;
#193 = DIRECTION ( 'NONE',  ( 1.000000000000000000, 1.734723475976806800E-016, 0.0000000000000000000 ) ) ;
#194 = LINE ( 'NONE', #195, #56 ) ;
#195 = CARTESIAN_POINT ( 'NONE',  ( 5.000000000000001800, -7.500000000000000000, 1000.000000000000000 ) ) ;
#196 = DIRECTION ( 'NONE',  ( -0.0000000000000000000, -0.0000000000000000000, -1.000000000000000000 ) ) ;
#197 = LINE ( 'NONE', #198, #57 ) ;
#198 = CARTESIAN_POINT ( 'NONE',  ( -5.000000000000000000, 7.500000000000001800, 1000.000000000000000 ) ) ;
#199 = DIRECTION ( 'NONE',  ( -0.0000000000000000000, -0.0000000000000000000, -1.000000000000000000 ) ) ;
#200 = LINE ( 'NONE', #201, #58 ) ;
#201 = CARTESIAN_POINT ( 'NONE',  ( -5.000000000000000000, 7.500000000000001800, 1000.000000000000000 ) ) ;
#202 = DIRECTION ( 'NONE',  ( 0.0000000000000000000, -1.000000000000000000, 0.0000000000000000000 ) ) ;
#203 = CARTESIAN_POINT ( 'NONE',  ( 0.0000000000000000000, 0.0000000000000000000, -1000.000000000000000 ) ) ;
#204 = DIRECTION ( 'NONE',  ( -0.0000000000000000000, 0.0000000000000000000, 1.000000000000000000 ) ) ;
#205 = DIRECTION ( 'NONE',  ( 1.000000000000000000, 0.0000000000000000000, 0.0000000000000000000 ) ) ;
#206 = PLANE ( 'NONE',  #231 ) ;
#207 = CARTESIAN_POINT ( 'NONE',  ( 0.0000000000000000000, 0.0000000000000000000, 1000.000000000000000 ) ) ;
#208 = DIRECTION ( 'NONE',  ( -0.0000000000000000000, 0.0000000000000000000, 1.000000000000000000 ) ) ;
#209 = DIRECTION ( 'NONE',  ( 1.000000000000000000, 0.0000000000000000000, 0.0000000000000000000 ) ) ;
#210 = CARTESIAN_POINT ( 'NONE',  ( -5.000000000000000000, -7.500000000000001800, -1000.000000000000000 ) ) ;
#211 = CARTESIAN_POINT ( 'NONE',  ( -5.000000000000000000, 7.500000000000001800, -1000.000000000000000 ) ) ;
#212 = CARTESIAN_POINT ( 'NONE',  ( 5.000000000000001800, -7.500000000000000000, 1000.000000000000000 ) ) ;
#213 = CARTESIAN_POINT ( 'NONE',  ( 5.000000000000000000, 7.500000000000000000, 1000.000000000000000 ) ) ;
#214 = CARTESIAN_POINT ( 'NONE',  ( -5.000000000000000000, 7.500000000000001800, 1000.000000000000000 ) ) ;
#215 = CARTESIAN_POINT ( 'NONE',  ( 5.000000000000000000, 7.500000000000000000, -1000.000000000000000 ) ) ;
#216 = CARTESIAN_POINT ( 'NONE',  ( 5.000000000000001800, -7.500000000000000000, -1000.000000000000000 ) ) ;
#217 = CARTESIAN_POINT ( 'NONE',  ( -5.000000000000000000, -7.500000000000001800, 1000.000000000000000 ) ) ;
#218 =( LENGTH_UNIT ( ) NAMED_UNIT ( * ) SI_UNIT ( .MILLI., .METRE. ) );
#219 = VECTOR ( 'NONE', #165, 1000.000000000000000 ) ;
#220 = AXIS2_PLACEMENT_3D ( 'NONE', #169, #170, #171 ) ;
#221 = AXIS2_PLACEMENT_3D ( 'NONE', #150, #149, #148 ) ;
#222 = AXIS2_PLACEMENT_3D ( 'NONE', #146, #145, #144 ) ;
#223 = VECTOR ( 'NONE', #178, 1000.000000000000000 ) ;
#224 = CLOSED_SHELL ( 'NONE', ( #119, #111, #117, #112, #131, #130 ) ) ;
#225 = FACE_OUTER_BOUND ( 'NONE', #45, .T. ) ;
#226 = FACE_OUTER_BOUND ( 'NONE', #38, .T. ) ;
#227 = FACE_OUTER_BOUND ( 'NONE', #44, .T. ) ;
#228 = FACE_OUTER_BOUND ( 'NONE', #43, .T. ) ;
#229 = FACE_OUTER_BOUND ( 'NONE', #42, .T. ) ;
#230 = VECTOR ( 'NONE', #181, 1000.000000000000000 ) ;
#231 = AXIS2_PLACEMENT_3D ( 'NONE', #207, #208, #209 ) ;
#232 = VECTOR ( 'NONE', #184, 1000.000000000000000 ) ;
#233 = AXIS2_PLACEMENT_3D ( 'NONE', #203, #204, #205 ) ;
#234 = VECTOR ( 'NONE', #187, 1000.000000000000000 ) ;
#235 = PRODUCT ( 'sone3D', 'sone3D', '', ( #19 ) ) ;
#236 = APPLICATION_CONTEXT ( 'configuration controlled 3d designs of mechanical parts and assemblies' ) ;
#237 = APPLICATION_CONTEXT ( 'configuration controlled 3d designs of mechanical parts and assemblies' ) ;
ENDSEC;
END-ISO-10303-21;
