ISO-10303-21;
HEADER;
FILE_DESCRIPTION (( 'STEP AP203' ),
    '1' );
FILE_NAME ('sone3D.STEP',
    '2013-05-13T01:58:35',
    ( '' ),
    ( '' ),
    'SwSTEP 2.0',
    'SolidWorks 2012',
    '' );
FILE_SCHEMA (( 'CONFIG_CONTROL_DESIGN' ));
ENDSEC;

DATA;
#1 = CC_DESIGN_PERSON_AND_ORGANIZATION_ASSIGNMENT ( #50, #51, ( #228 ) ) ;
#2 = APPROVAL ( #46, 'UNSPECIFIED' ) ;
#3 = LOCAL_TIME ( 10, 58, 35.00000000000000000, #192 ) ;
#4 =( GEOMETRIC_REPRESENTATION_CONTEXT ( 3 ) GLOBAL_UNCERTAINTY_ASSIGNED_CONTEXT ( ( #210 ) ) GLOBAL_UNIT_ASSIGNED_CONTEXT ( ( #22, #34, #35 ) ) REPRESENTATION_CONTEXT ( 'NONE', 'WORKASPACE' ) );
#5 = MANIFOLD_SOLID_BREP ( 'ÎÞ½ - µoµ1', #226 ) ;
#6 = DESIGN_CONTEXT ( 'detailed design', #161, 'design' ) ;
#7 = PRODUCT_DEFINITION_SHAPE ( 'NONE', 'NONE',  #228 ) ;
#8 = LOCAL_TIME ( 10, 58, 35.00000000000000000, #199 ) ;
#9 = AXIS2_PLACEMENT_3D ( 'NONE', #16, #18, #17 ) ;
#10 = FACE_OUTER_BOUND ( 'NONE', #81, .T. ) ;
#11 = PLANE ( 'NONE',  #220 ) ;
#12 = CARTESIAN_POINT ( 'NONE',  ( -10.00000000000000000, 5.000000000000001800, 1000.000000000000000 ) ) ;
#13 = DIRECTION ( 'NONE',  ( 1.000000000000000000, 0.0000000000000000000, -0.0000000000000000000 ) ) ;
#14 = DIRECTION ( 'NONE',  ( -0.0000000000000000000, 0.0000000000000000000, -1.000000000000000000 ) ) ;
#15 = PLANE ( 'NONE',  #9 ) ;
#16 = CARTESIAN_POINT ( 'NONE',  ( -10.00000000000000000, -5.000000000000001800, 1000.000000000000000 ) ) ;
#17 = DIRECTION ( 'NONE',  ( -1.000000000000000000, -8.673617379884034200E-017, 0.0000000000000000000 ) ) ;
#18 = DIRECTION ( 'NONE',  ( -8.673617379884034200E-017, 1.000000000000000000, 0.0000000000000000000 ) ) ;
#19 = LINE ( 'NONE', #20, #219 ) ;
#20 = CARTESIAN_POINT ( 'NONE',  ( -10.00000000000000000, 5.000000000000001800, -1000.000000000000000 ) ) ;
#21 = DIRECTION ( 'NONE',  ( -1.000000000000000000, 8.673617379884035500E-017, -0.0000000000000000000 ) ) ;
#22 =( LENGTH_UNIT ( ) NAMED_UNIT ( * ) SI_UNIT ( .MILLI., .METRE. ) );
#23 = VECTOR ( 'NONE', #119, 1000.000000000000000 ) ;
#24 = FACE_OUTER_BOUND ( 'NONE', #84, .T. ) ;
#25 = AXIS2_PLACEMENT_3D ( 'NONE', #147, #148, #149 ) ;
#26 = ORIENTED_EDGE ( 'NONE', *, *, #173, .T. ) ;
#27 = ORIENTED_EDGE ( 'NONE', *, *, #167, .T. ) ;
#28 = ORIENTED_EDGE ( 'NONE', *, *, #170, .F. ) ;
#29 = ORIENTED_EDGE ( 'NONE', *, *, #173, .F. ) ;
#30 = ORIENTED_EDGE ( 'NONE', *, *, #166, .T. ) ;
#31 = ORIENTED_EDGE ( 'NONE', *, *, #235, .T. ) ;
#32 = ORIENTED_EDGE ( 'NONE', *, *, #172, .T. ) ;
#33 = ORIENTED_EDGE ( 'NONE', *, *, #171, .T. ) ;
#34 =( NAMED_UNIT ( * ) PLANE_ANGLE_UNIT ( ) SI_UNIT ( $, .RADIAN. ) );
#35 =( NAMED_UNIT ( * ) SI_UNIT ( $, .STERADIAN. ) SOLID_ANGLE_UNIT ( ) );
#36 = APPLICATION_PROTOCOL_DEFINITION ( 'international standard', 'config_control_design', 1994, #160 ) ;
#37 = CARTESIAN_POINT ( 'NONE',  ( 0.0000000000000000000, 0.0000000000000000000, 0.0000000000000000000 ) ) ;
#38 = DIRECTION ( 'NONE',  ( 0.0000000000000000000, 0.0000000000000000000, 1.000000000000000000 ) ) ;
#39 = DIRECTION ( 'NONE',  ( 1.000000000000000000, 0.0000000000000000000, 0.0000000000000000000 ) ) ;
#40 = SHAPE_DEFINITION_REPRESENTATION ( #7, #211 ) ;
#41 = MECHANICAL_CONTEXT ( 'NONE', #160, 'mechanical' ) ;
#42 = PERSON_AND_ORGANIZATION ( #212, #190 ) ;
#43 = PERSON_AND_ORGANIZATION_ROLE ( 'design_owner' ) ;
#44 = APPLICATION_PROTOCOL_DEFINITION ( 'international standard', 'config_control_design', 1994, #161 ) ;
#45 = PERSON_AND_ORGANIZATION ( #212, #190 ) ;
#46 = APPROVAL_STATUS ( 'not_yet_approved' ) ;
#47 = APPROVAL_ROLE ( '' ) ;
#48 = DATE_AND_TIME ( #193, #3 ) ;
#49 = APPROVAL_DATE_TIME ( #48, #2 ) ;
#50 = PERSON_AND_ORGANIZATION ( #212, #190 ) ;
#51 = PERSON_AND_ORGANIZATION_ROLE ( 'creator' ) ;
#52 = DATE_AND_TIME ( #196, #233 ) ;
#53 = DATE_TIME_ROLE ( 'creation_date' ) ;
#54 = PERSON_AND_ORGANIZATION ( #212, #190 ) ;
#55 = APPROVAL_STATUS ( 'not_yet_approved' ) ;
#56 = APPROVAL_ROLE ( '' ) ;
#57 = DATE_AND_TIME ( #200, #8 ) ;
#58 = APPROVAL_DATE_TIME ( #57, #236 ) ;
#59 = PERSON_AND_ORGANIZATION ( #212, #190 ) ;
#60 = PERSON_AND_ORGANIZATION_ROLE ( 'creator' ) ;
#61 = PERSON_AND_ORGANIZATION ( #212, #190 ) ;
#62 = PERSON_AND_ORGANIZATION_ROLE ( 'design_supplier' ) ;
#63 = SECURITY_CLASSIFICATION_LEVEL ( 'unclassified' ) ;
#64 = APPROVAL_DATE_TIME ( #65, #186 ) ;
#65 = DATE_AND_TIME ( #207, #187 ) ;
#66 = APPROVAL_ROLE ( '' ) ;
#67 = APPROVAL_STATUS ( 'not_yet_approved' ) ;
#68 = DATE_TIME_ROLE ( 'classification_date' ) ;
#69 = DATE_AND_TIME ( #204, #184 ) ;
#70 = PERSON_AND_ORGANIZATION ( #212, #190 ) ;
#71 = PERSON_AND_ORGANIZATION ( #212, #190 ) ;
#72 = PERSON_AND_ORGANIZATION_ROLE ( 'classification_officer' ) ;
#73 = DIRECTION ( 'NONE',  ( 1.000000000000000000, 0.0000000000000000000, 0.0000000000000000000 ) ) ;
#74 = DIRECTION ( 'NONE',  ( -0.0000000000000000000, 0.0000000000000000000, 1.000000000000000000 ) ) ;
#75 = ORIENTED_EDGE ( 'NONE', *, *, #164, .F. ) ;
#76 = ORIENTED_EDGE ( 'NONE', *, *, #168, .F. ) ;
#77 = ORIENTED_EDGE ( 'NONE', *, *, #165, .F. ) ;
#78 = ORIENTED_EDGE ( 'NONE', *, *, #235, .F. ) ;
#79 = ORIENTED_EDGE ( 'NONE', *, *, #169, .T. ) ;
#80 = EDGE_LOOP ( 'NONE', ( #31, #28, #29, #30 ) ) ;
#81 = EDGE_LOOP ( 'NONE', ( #97, #99, #98, #100 ) ) ;
#82 = EDGE_LOOP ( 'NONE', ( #104, #95, #94, #96 ) ) ;
#83 = EDGE_LOOP ( 'NONE', ( #101, #103, #102, #79 ) ) ;
#84 = EDGE_LOOP ( 'NONE', ( #33, #27, #32, #26 ) ) ;
#85 = EDGE_LOOP ( 'NONE', ( #75, #78, #77, #76 ) ) ;
#86 = VERTEX_POINT ( 'NONE', #105 ) ;
#87 = VERTEX_POINT ( 'NONE', #106 ) ;
#88 = VERTEX_POINT ( 'NONE', #107 ) ;
#89 = VERTEX_POINT ( 'NONE', #108 ) ;
#90 = VERTEX_POINT ( 'NONE', #109 ) ;
#91 = VERTEX_POINT ( 'NONE', #110 ) ;
#92 = VERTEX_POINT ( 'NONE', #111 ) ;
#93 = VERTEX_POINT ( 'NONE', #112 ) ;
#94 = ORIENTED_EDGE ( 'NONE', *, *, #171, .F. ) ;
#95 = ORIENTED_EDGE ( 'NONE', *, *, #163, .F. ) ;
#96 = ORIENTED_EDGE ( 'NONE', *, *, #170, .T. ) ;
#97 = ORIENTED_EDGE ( 'NONE', *, *, #168, .T. ) ;
#98 = ORIENTED_EDGE ( 'NONE', *, *, #167, .F. ) ;
#99 = ORIENTED_EDGE ( 'NONE', *, *, #169, .F. ) ;
#100 = ORIENTED_EDGE ( 'NONE', *, *, #163, .T. ) ;
#101 = ORIENTED_EDGE ( 'NONE', *, *, #165, .T. ) ;
#102 = ORIENTED_EDGE ( 'NONE', *, *, #172, .F. ) ;
#103 = ORIENTED_EDGE ( 'NONE', *, *, #166, .F. ) ;
#104 = ORIENTED_EDGE ( 'NONE', *, *, #164, .T. ) ;
#105 = CARTESIAN_POINT ( 'NONE',  ( 10.00000000000000200, -5.000000000000000000, -1000.000000000000000 ) ) ;
#106 = CARTESIAN_POINT ( 'NONE',  ( -10.00000000000000000, -5.000000000000001800, 1000.000000000000000 ) ) ;
#107 = CARTESIAN_POINT ( 'NONE',  ( -10.00000000000000000, 5.000000000000001800, -1000.000000000000000 ) ) ;
#108 = CARTESIAN_POINT ( 'NONE',  ( -10.00000000000000000, 5.000000000000001800, 1000.000000000000000 ) ) ;
#109 = CARTESIAN_POINT ( 'NONE',  ( 10.00000000000000200, -5.000000000000000000, 1000.000000000000000 ) ) ;
#110 = CARTESIAN_POINT ( 'NONE',  ( 10.00000000000000000, 5.000000000000000000, -1000.000000000000000 ) ) ;
#111 = CARTESIAN_POINT ( 'NONE',  ( 10.00000000000000000, 5.000000000000000000, 1000.000000000000000 ) ) ;
#112 = CARTESIAN_POINT ( 'NONE',  ( -10.00000000000000000, -5.000000000000001800, -1000.000000000000000 ) ) ;
#113 = LINE ( 'NONE', #114, #162 ) ;
#114 = CARTESIAN_POINT ( 'NONE',  ( -10.00000000000000000, -5.000000000000001800, 1000.000000000000000 ) ) ;
#115 = DIRECTION ( 'NONE',  ( -0.0000000000000000000, -0.0000000000000000000, -1.000000000000000000 ) ) ;
#116 = PLANE ( 'NONE',  #25 ) ;
#117 = LINE ( 'NONE', #118, #23 ) ;
#118 = CARTESIAN_POINT ( 'NONE',  ( -10.00000000000000000, 5.000000000000001800, -1000.000000000000000 ) ) ;
#119 = DIRECTION ( 'NONE',  ( 0.0000000000000000000, -1.000000000000000000, 0.0000000000000000000 ) ) ;
#120 = LINE ( 'NONE', #121, #213 ) ;
#121 = CARTESIAN_POINT ( 'NONE',  ( 10.00000000000000000, 5.000000000000000000, -1000.000000000000000 ) ) ;
#122 = DIRECTION ( 'NONE',  ( -1.734723475976807100E-016, 1.000000000000000000, -0.0000000000000000000 ) ) ;
#123 = LINE ( 'NONE', #124, #225 ) ;
#124 = CARTESIAN_POINT ( 'NONE',  ( 10.00000000000000000, 5.000000000000000000, 1000.000000000000000 ) ) ;
#125 = DIRECTION ( 'NONE',  ( -0.0000000000000000000, -0.0000000000000000000, -1.000000000000000000 ) ) ;
#126 = LINE ( 'NONE', #127, #221 ) ;
#127 = CARTESIAN_POINT ( 'NONE',  ( -10.00000000000000000, -5.000000000000001800, 1000.000000000000000 ) ) ;
#128 = DIRECTION ( 'NONE',  ( 1.000000000000000000, 8.673617379884034200E-017, 0.0000000000000000000 ) ) ;
#129 = LINE ( 'NONE', #130, #223 ) ;
#130 = CARTESIAN_POINT ( 'NONE',  ( -10.00000000000000000, -5.000000000000001800, -1000.000000000000000 ) ) ;
#131 = DIRECTION ( 'NONE',  ( 1.000000000000000000, 8.673617379884034200E-017, 0.0000000000000000000 ) ) ;
#132 = LINE ( 'NONE', #133, #224 ) ;
#133 = CARTESIAN_POINT ( 'NONE',  ( 10.00000000000000200, -5.000000000000000000, 1000.000000000000000 ) ) ;
#134 = DIRECTION ( 'NONE',  ( -0.0000000000000000000, -0.0000000000000000000, -1.000000000000000000 ) ) ;
#135 = LINE ( 'NONE', #136, #180 ) ;
#136 = CARTESIAN_POINT ( 'NONE',  ( -10.00000000000000000, 5.000000000000001800, 1000.000000000000000 ) ) ;
#137 = DIRECTION ( 'NONE',  ( -0.0000000000000000000, -0.0000000000000000000, -1.000000000000000000 ) ) ;
#138 = LINE ( 'NONE', #139, #229 ) ;
#139 = CARTESIAN_POINT ( 'NONE',  ( -10.00000000000000000, 5.000000000000001800, 1000.000000000000000 ) ) ;
#140 = DIRECTION ( 'NONE',  ( 0.0000000000000000000, -1.000000000000000000, 0.0000000000000000000 ) ) ;
#141 = LINE ( 'NONE', #142, #230 ) ;
#142 = CARTESIAN_POINT ( 'NONE',  ( 10.00000000000000000, 5.000000000000000000, 1000.000000000000000 ) ) ;
#143 = DIRECTION ( 'NONE',  ( -1.734723475976807100E-016, 1.000000000000000000, -0.0000000000000000000 ) ) ;
#144 = LINE ( 'NONE', #145, #231 ) ;
#145 = CARTESIAN_POINT ( 'NONE',  ( -10.00000000000000000, 5.000000000000001800, 1000.000000000000000 ) ) ;
#146 = DIRECTION ( 'NONE',  ( -1.000000000000000000, 8.673617379884035500E-017, -0.0000000000000000000 ) ) ;
#147 = CARTESIAN_POINT ( 'NONE',  ( 0.0000000000000000000, 0.0000000000000000000, 1000.000000000000000 ) ) ;
#148 = DIRECTION ( 'NONE',  ( -0.0000000000000000000, 0.0000000000000000000, 1.000000000000000000 ) ) ;
#149 = DIRECTION ( 'NONE',  ( 1.000000000000000000, 0.0000000000000000000, 0.0000000000000000000 ) ) ;
#150 = PLANE ( 'NONE',  #222 ) ;
#151 = CARTESIAN_POINT ( 'NONE',  ( -10.00000000000000000, 5.000000000000001800, 1000.000000000000000 ) ) ;
#152 = DIRECTION ( 'NONE',  ( -8.673617379884035500E-017, -1.000000000000000000, 0.0000000000000000000 ) ) ;
#153 = DIRECTION ( 'NONE',  ( 1.000000000000000000, -8.673617379884035500E-017, 0.0000000000000000000 ) ) ;
#154 = PLANE ( 'NONE',  #215 ) ;
#155 = CARTESIAN_POINT ( 'NONE',  ( 10.00000000000000000, 5.000000000000000000, 1000.000000000000000 ) ) ;
#156 = DIRECTION ( 'NONE',  ( -1.000000000000000000, -1.734723475976807100E-016, 0.0000000000000000000 ) ) ;
#157 = DIRECTION ( 'NONE',  ( 1.734723475976807100E-016, -1.000000000000000000, 0.0000000000000000000 ) ) ;
#158 = PLANE ( 'NONE',  #218 ) ;
#159 = CARTESIAN_POINT ( 'NONE',  ( 0.0000000000000000000, 0.0000000000000000000, -1000.000000000000000 ) ) ;
#160 = APPLICATION_CONTEXT ( 'configuration controlled 3d designs of mechanical parts and assemblies' ) ;
#161 = APPLICATION_CONTEXT ( 'configuration controlled 3d designs of mechanical parts and assemblies' ) ;
#162 = VECTOR ( 'NONE', #115, 1000.000000000000000 ) ;
#163 = EDGE_CURVE ( 'NONE', #87, #93, #113, .T. ) ;
#164 = EDGE_CURVE ( 'NONE', #88, #93, #117, .T. ) ;
#165 = EDGE_CURVE ( 'NONE', #86, #91, #120, .T. ) ;
#166 = EDGE_CURVE ( 'NONE', #92, #91, #123, .T. ) ;
#167 = EDGE_CURVE ( 'NONE', #87, #90, #126, .T. ) ;
#168 = EDGE_CURVE ( 'NONE', #93, #86, #129, .T. ) ;
#169 = EDGE_CURVE ( 'NONE', #90, #86, #132, .T. ) ;
#170 = EDGE_CURVE ( 'NONE', #89, #88, #135, .T. ) ;
#171 = EDGE_CURVE ( 'NONE', #89, #87, #138, .T. ) ;
#172 = EDGE_CURVE ( 'NONE', #90, #92, #141, .T. ) ;
#173 = EDGE_CURVE ( 'NONE', #92, #89, #144, .T. ) ;
#174 = ADVANCED_FACE ( 'NONE', ( #24 ), #116, .T. ) ;
#175 = ADVANCED_FACE ( 'NONE', ( #232 ), #150, .F. ) ;
#176 = ADVANCED_FACE ( 'NONE', ( #216 ), #154, .F. ) ;
#177 = ADVANCED_FACE ( 'NONE', ( #214 ), #158, .F. ) ;
#178 = ADVANCED_FACE ( 'NONE', ( #217 ), #11, .F. ) ;
#179 = ADVANCED_FACE ( 'NONE', ( #10 ), #15, .F. ) ;
#180 = VECTOR ( 'NONE', #137, 1000.000000000000000 ) ;
#181 = CC_DESIGN_PERSON_AND_ORGANIZATION_ASSIGNMENT ( #59, #60, ( #197 ) ) ;
#182 = CC_DESIGN_PERSON_AND_ORGANIZATION_ASSIGNMENT ( #61, #62, ( #197 ) ) ;
#183 = CC_DESIGN_PERSON_AND_ORGANIZATION_ASSIGNMENT ( #71, #72, ( #202 ) ) ;
#184 = LOCAL_TIME ( 10, 58, 35.00000000000000000, #203 ) ;
#185 = CC_DESIGN_DATE_AND_TIME_ASSIGNMENT ( #69, #68, ( #202 ) ) ;
#186 = APPROVAL ( #67, 'UNSPECIFIED' ) ;
#187 = LOCAL_TIME ( 10, 58, 35.00000000000000000, #206 ) ;
#188 = PRODUCT_RELATED_PRODUCT_CATEGORY ( 'detail', '', ( #237 ) ) ;
#189 = AXIS2_PLACEMENT_3D ( 'NONE', #37, #38, #39 ) ;
#190 = ORGANIZATION ( 'UNSPECIFIED', 'UNSPECIFIED', '' ) ;
#191 = APPROVAL_PERSON_ORGANIZATION ( #45, #2, #47 ) ;
#192 = COORDINATED_UNIVERSAL_TIME_OFFSET ( 9, 0, .AHEAD. ) ;
#193 = CALENDAR_DATE ( 2013, 13, 5 ) ;
#194 = CC_DESIGN_APPROVAL ( #2, ( #228 ) ) ;
#195 = COORDINATED_UNIVERSAL_TIME_OFFSET ( 9, 0, .AHEAD. ) ;
#196 = CALENDAR_DATE ( 2013, 13, 5 ) ;
#197 = PRODUCT_DEFINITION_FORMATION_WITH_SPECIFIED_SOURCE ( 'ANY', '', #237, .NOT_KNOWN. ) ;
#198 = APPROVAL_PERSON_ORGANIZATION ( #54, #236, #56 ) ;
#199 = COORDINATED_UNIVERSAL_TIME_OFFSET ( 9, 0, .AHEAD. ) ;
#200 = CALENDAR_DATE ( 2013, 13, 5 ) ;
#201 = CC_DESIGN_APPROVAL ( #236, ( #197 ) ) ;
#202 = SECURITY_CLASSIFICATION ( '', '', #63 ) ;
#203 = COORDINATED_UNIVERSAL_TIME_OFFSET ( 9, 0, .AHEAD. ) ;
#204 = CALENDAR_DATE ( 2013, 13, 5 ) ;
#205 = APPROVAL_PERSON_ORGANIZATION ( #70, #186, #66 ) ;
#206 = COORDINATED_UNIVERSAL_TIME_OFFSET ( 9, 0, .AHEAD. ) ;
#207 = CALENDAR_DATE ( 2013, 13, 5 ) ;
#208 = CC_DESIGN_APPROVAL ( #186, ( #202 ) ) ;
#209 = CC_DESIGN_SECURITY_CLASSIFICATION ( #202, ( #197 ) ) ;
#210 = UNCERTAINTY_MEASURE_WITH_UNIT (LENGTH_MEASURE( 1.000000000000000100E-005 ), #22, 'distance_accuracy_value', 'NONE');
#211 = ADVANCED_BREP_SHAPE_REPRESENTATION ( 'sone3D', ( #5, #189 ), #4 ) ;
#212 = PERSON ( 'UNSPECIFIED', 'UNSPECIFIED', 'UNSPECIFIED', ('UNSPECIFIED'), ('UNSPECIFIED'), ('UNSPECIFIED') ) ;
#213 = VECTOR ( 'NONE', #122, 1000.000000000000000 ) ;
#214 = FACE_OUTER_BOUND ( 'NONE', #85, .T. ) ;
#215 = AXIS2_PLACEMENT_3D ( 'NONE', #155, #156, #157 ) ;
#216 = FACE_OUTER_BOUND ( 'NONE', #83, .T. ) ;
#217 = FACE_OUTER_BOUND ( 'NONE', #82, .T. ) ;
#218 = AXIS2_PLACEMENT_3D ( 'NONE', #159, #74, #73 ) ;
#219 = VECTOR ( 'NONE', #21, 1000.000000000000000 ) ;
#220 = AXIS2_PLACEMENT_3D ( 'NONE', #12, #13, #14 ) ;
#221 = VECTOR ( 'NONE', #128, 1000.000000000000000 ) ;
#222 = AXIS2_PLACEMENT_3D ( 'NONE', #151, #152, #153 ) ;
#223 = VECTOR ( 'NONE', #131, 1000.000000000000000 ) ;
#224 = VECTOR ( 'NONE', #134, 1000.000000000000000 ) ;
#225 = VECTOR ( 'NONE', #125, 1000.000000000000000 ) ;
#226 = CLOSED_SHELL ( 'NONE', ( #178, #179, #176, #175, #174, #177 ) ) ;
#227 = CC_DESIGN_PERSON_AND_ORGANIZATION_ASSIGNMENT ( #42, #43, ( #237 ) ) ;
#228 = PRODUCT_DEFINITION ( 'UNKNOWN', '', #197, #6 ) ;
#229 = VECTOR ( 'NONE', #140, 1000.000000000000000 ) ;
#230 = VECTOR ( 'NONE', #143, 1000.000000000000000 ) ;
#231 = VECTOR ( 'NONE', #146, 1000.000000000000000 ) ;
#232 = FACE_OUTER_BOUND ( 'NONE', #80, .T. ) ;
#233 = LOCAL_TIME ( 10, 58, 35.00000000000000000, #195 ) ;
#234 = CC_DESIGN_DATE_AND_TIME_ASSIGNMENT ( #52, #53, ( #228 ) ) ;
#235 = EDGE_CURVE ( 'NONE', #91, #88, #19, .T. ) ;
#236 = APPROVAL ( #55, 'UNSPECIFIED' ) ;
#237 = PRODUCT ( 'sone3D', 'sone3D', '', ( #41 ) ) ;
ENDSEC;
END-ISO-10303-21;
