ISO-10303-21;
HEADER;
FILE_DESCRIPTION (( 'STEP AP203' ),
    '1' );
FILE_NAME ('sone3D.STEP',
    '2013-05-13T01:58:02',
    ( '' ),
    ( '' ),
    'SwSTEP 2.0',
    'SolidWorks 2012',
    '' );
FILE_SCHEMA (( 'CONFIG_CONTROL_DESIGN' ));
ENDSEC;

DATA;
#1 = EDGE_CURVE ( 'NONE', #230, #231, #112, .T. ) ;
#2 = EDGE_CURVE ( 'NONE', #229, #231, #116, .T. ) ;
#3 = ADVANCED_FACE ( 'NONE', ( #211 ), #115, .F. ) ;
#4 = ADVANCED_FACE ( 'NONE', ( #184 ), #122, .F. ) ;
#5 = ADVANCED_FACE ( 'NONE', ( #39 ), #126, .F. ) ;
#6 = ADVANCED_FACE ( 'NONE', ( #226 ), #130, .F. ) ;
#7 = ADVANCED_FACE ( 'NONE', ( #183 ), #134, .T. ) ;
#8 = ADVANCED_FACE ( 'NONE', ( #208 ), #138, .F. ) ;
#9 = EDGE_CURVE ( 'NONE', #232, #233, #142, .T. ) ;
#10 = EDGE_CURVE ( 'NONE', #81, #230, #146, .T. ) ;
#11 = EDGE_CURVE ( 'NONE', #234, #232, #149, .T. ) ;
#12 = EDGE_CURVE ( 'NONE', #80, #81, #152, .T. ) ;
#13 = PRODUCT_DEFINITION ( 'UNKNOWN', '', #187, #168 ) ;
#14 = EDGE_CURVE ( 'NONE', #233, #230, #155, .T. ) ;
#15 = EDGE_CURVE ( 'NONE', #233, #229, #158, .T. ) ;
#16 = SECURITY_CLASSIFICATION ( '', '', #75 ) ;
#17 = COORDINATED_UNIVERSAL_TIME_OFFSET ( 9, 0, .AHEAD. ) ;
#18 = CALENDAR_DATE ( 2013, 13, 5 ) ;
#19 = APPROVAL_PERSON_ORGANIZATION ( #41, #180, #44 ) ;
#20 = COORDINATED_UNIVERSAL_TIME_OFFSET ( 9, 0, .AHEAD. ) ;
#21 = CALENDAR_DATE ( 2013, 13, 5 ) ;
#22 = CC_DESIGN_APPROVAL ( #180, ( #16 ) ) ;
#23 = CC_DESIGN_SECURITY_CLASSIFICATION ( #16, ( #187 ) ) ;
#24 = CC_DESIGN_PERSON_AND_ORGANIZATION_ASSIGNMENT ( #62, #63, ( #13 ) ) ;
#25 = CARTESIAN_POINT ( 'NONE',  ( -7.500000000000000000, 5.000000000000000000, 1000.000000000000000 ) ) ;
#26 = CARTESIAN_POINT ( 'NONE',  ( -7.500000000000000000, 5.000000000000000000, -1000.000000000000000 ) ) ;
#27 = CARTESIAN_POINT ( 'NONE',  ( 7.500000000000000000, 5.000000000000000000, 1000.000000000000000 ) ) ;
#28 = DIRECTION ( 'NONE',  ( 1.000000000000000000, 0.0000000000000000000, 0.0000000000000000000 ) ) ;
#29 = CARTESIAN_POINT ( 'NONE',  ( 7.500000000000000900, -5.000000000000000000, 1000.000000000000000 ) ) ;
#30 = CARTESIAN_POINT ( 'NONE',  ( -7.500000000000000000, -5.000000000000000000, 1000.000000000000000 ) ) ;
#31 = CARTESIAN_POINT ( 'NONE',  ( -7.500000000000000000, -5.000000000000000000, -1000.000000000000000 ) ) ;
#32 =( LENGTH_UNIT ( ) NAMED_UNIT ( * ) SI_UNIT ( .MILLI., .METRE. ) );
#33 = LINE ( 'NONE', #29, #203 ) ;
#34 = CARTESIAN_POINT ( 'NONE',  ( 7.500000000000000900, -5.000000000000000000, 1000.000000000000000 ) ) ;
#35 = CARTESIAN_POINT ( 'NONE',  ( -7.500000000000000000, -5.000000000000000000, -1000.000000000000000 ) ) ;
#36 = LINE ( 'NONE', #35, #204 ) ;
#37 = DIRECTION ( 'NONE',  ( -0.0000000000000000000, -0.0000000000000000000, -1.000000000000000000 ) ) ;
#38 = AXIS2_PLACEMENT_3D ( 'NONE', #127, #128, #129 ) ;
#39 = FACE_OUTER_BOUND ( 'NONE', #109, .T. ) ;
#40 = VECTOR ( 'NONE', #144, 1000.000000000000000 ) ;
#41 = PERSON_AND_ORGANIZATION ( #195, #215 ) ;
#42 = APPROVAL_STATUS ( 'not_yet_approved' ) ;
#43 = APPROVAL_DATE_TIME ( #45, #180 ) ;
#44 = APPROVAL_ROLE ( '' ) ;
#45 = DATE_AND_TIME ( #21, #181 ) ;
#46 =( NAMED_UNIT ( * ) PLANE_ANGLE_UNIT ( ) SI_UNIT ( $, .RADIAN. ) );
#47 =( NAMED_UNIT ( * ) SI_UNIT ( $, .STERADIAN. ) SOLID_ANGLE_UNIT ( ) );
#48 = APPLICATION_PROTOCOL_DEFINITION ( 'international standard', 'config_control_design', 1994, #169 ) ;
#49 = CARTESIAN_POINT ( 'NONE',  ( 0.0000000000000000000, 0.0000000000000000000, 0.0000000000000000000 ) ) ;
#50 = DIRECTION ( 'NONE',  ( 0.0000000000000000000, 0.0000000000000000000, 1.000000000000000000 ) ) ;
#51 = DIRECTION ( 'NONE',  ( 1.000000000000000000, 0.0000000000000000000, 0.0000000000000000000 ) ) ;
#52 = SHAPE_DEFINITION_REPRESENTATION ( #167, #197 ) ;
#53 = MECHANICAL_CONTEXT ( 'NONE', #169, 'mechanical' ) ;
#54 = PERSON_AND_ORGANIZATION ( #195, #215 ) ;
#55 = PERSON_AND_ORGANIZATION_ROLE ( 'design_owner' ) ;
#56 = APPLICATION_PROTOCOL_DEFINITION ( 'international standard', 'config_control_design', 1994, #170 ) ;
#57 = PERSON_AND_ORGANIZATION ( #195, #215 ) ;
#58 = APPROVAL_STATUS ( 'not_yet_approved' ) ;
#59 = APPROVAL_ROLE ( '' ) ;
#60 = DATE_AND_TIME ( #218, #214 ) ;
#61 = APPROVAL_DATE_TIME ( #60, #213 ) ;
#62 = PERSON_AND_ORGANIZATION ( #195, #215 ) ;
#63 = PERSON_AND_ORGANIZATION_ROLE ( 'creator' ) ;
#64 = DATE_AND_TIME ( #186, #171 ) ;
#65 = DATE_TIME_ROLE ( 'creation_date' ) ;
#66 = PERSON_AND_ORGANIZATION ( #195, #215 ) ;
#67 = APPROVAL_STATUS ( 'not_yet_approved' ) ;
#68 = APPROVAL_ROLE ( '' ) ;
#69 = DATE_AND_TIME ( #190, #174 ) ;
#70 = APPROVAL_DATE_TIME ( #69, #173 ) ;
#71 = PERSON_AND_ORGANIZATION ( #195, #215 ) ;
#72 = PERSON_AND_ORGANIZATION_ROLE ( 'creator' ) ;
#73 = PERSON_AND_ORGANIZATION ( #195, #215 ) ;
#74 = PERSON_AND_ORGANIZATION_ROLE ( 'design_supplier' ) ;
#75 = SECURITY_CLASSIFICATION_LEVEL ( 'unclassified' ) ;
#76 = PERSON_AND_ORGANIZATION ( #195, #215 ) ;
#77 = PERSON_AND_ORGANIZATION_ROLE ( 'classification_officer' ) ;
#78 = DATE_AND_TIME ( #18, #178 ) ;
#79 = DATE_TIME_ROLE ( 'classification_date' ) ;
#80 = VERTEX_POINT ( 'NONE', #161 ) ;
#81 = VERTEX_POINT ( 'NONE', #162 ) ;
#82 = ORIENTED_EDGE ( 'NONE', *, *, #12, .T. ) ;
#83 = ORIENTED_EDGE ( 'NONE', *, *, #11, .F. ) ;
#84 = ORIENTED_EDGE ( 'NONE', *, *, #212, .F. ) ;
#85 = ORIENTED_EDGE ( 'NONE', *, *, #222, .T. ) ;
#86 = ORIENTED_EDGE ( 'NONE', *, *, #9, .F. ) ;
#87 = ORIENTED_EDGE ( 'NONE', *, *, #10, .T. ) ;
#88 = ORIENTED_EDGE ( 'NONE', *, *, #14, .F. ) ;
#89 = ORIENTED_EDGE ( 'NONE', *, *, #9, .T. ) ;
#90 = ORIENTED_EDGE ( 'NONE', *, *, #212, .T. ) ;
#91 = ORIENTED_EDGE ( 'NONE', *, *, #15, .T. ) ;
#92 = ORIENTED_EDGE ( 'NONE', *, *, #221, .T. ) ;
#93 = ORIENTED_EDGE ( 'NONE', *, *, #11, .T. ) ;
#94 = ORIENTED_EDGE ( 'NONE', *, *, #223, .F. ) ;
#95 = ORIENTED_EDGE ( 'NONE', *, *, #1, .F. ) ;
#96 = ORIENTED_EDGE ( 'NONE', *, *, #10, .F. ) ;
#97 = ORIENTED_EDGE ( 'NONE', *, *, #12, .F. ) ;
#98 = ORIENTED_EDGE ( 'NONE', *, *, #1, .T. ) ;
#99 = ORIENTED_EDGE ( 'NONE', *, *, #15, .F. ) ;
#100 = ORIENTED_EDGE ( 'NONE', *, *, #2, .F. ) ;
#101 = ORIENTED_EDGE ( 'NONE', *, *, #14, .T. ) ;
#102 = ORIENTED_EDGE ( 'NONE', *, *, #223, .T. ) ;
#103 = ORIENTED_EDGE ( 'NONE', *, *, #221, .F. ) ;
#104 = ORIENTED_EDGE ( 'NONE', *, *, #222, .F. ) ;
#105 = ORIENTED_EDGE ( 'NONE', *, *, #2, .T. ) ;
#106 = EDGE_LOOP ( 'NONE', ( #91, #92, #93, #89 ) ) ;
#107 = EDGE_LOOP ( 'NONE', ( #95, #96, #97, #94 ) ) ;
#108 = EDGE_LOOP ( 'NONE', ( #102, #104, #103, #105 ) ) ;
#109 = EDGE_LOOP ( 'NONE', ( #87, #88, #86, #90 ) ) ;
#110 = EDGE_LOOP ( 'NONE', ( #82, #84, #83, #85 ) ) ;
#111 = EDGE_LOOP ( 'NONE', ( #98, #100, #99, #101 ) ) ;
#112 = LINE ( 'NONE', #113, #209 ) ;
#113 = CARTESIAN_POINT ( 'NONE',  ( -7.500000000000000000, 5.000000000000000000, -1000.000000000000000 ) ) ;
#114 = DIRECTION ( 'NONE',  ( 0.0000000000000000000, -1.000000000000000000, 0.0000000000000000000 ) ) ;
#115 = PLANE ( 'NONE',  #235 ) ;
#116 = LINE ( 'NONE', #117, #237 ) ;
#117 = CARTESIAN_POINT ( 'NONE',  ( -7.500000000000000000, -5.000000000000000000, 1000.000000000000000 ) ) ;
#118 = DIRECTION ( 'NONE',  ( -0.0000000000000000000, -0.0000000000000000000, -1.000000000000000000 ) ) ;
#119 = CARTESIAN_POINT ( 'NONE',  ( 0.0000000000000000000, 0.0000000000000000000, -1000.000000000000000 ) ) ;
#120 = DIRECTION ( 'NONE',  ( -0.0000000000000000000, 0.0000000000000000000, 1.000000000000000000 ) ) ;
#121 = DIRECTION ( 'NONE',  ( 1.000000000000000000, 0.0000000000000000000, 0.0000000000000000000 ) ) ;
#122 = PLANE ( 'NONE',  #236 ) ;
#123 = CARTESIAN_POINT ( 'NONE',  ( -7.500000000000000000, 5.000000000000000000, 1000.000000000000000 ) ) ;
#124 = DIRECTION ( 'NONE',  ( 1.000000000000000000, 0.0000000000000000000, -0.0000000000000000000 ) ) ;
#125 = DIRECTION ( 'NONE',  ( -0.0000000000000000000, 0.0000000000000000000, -1.000000000000000000 ) ) ;
#126 = PLANE ( 'NONE',  #38 ) ;
#127 = CARTESIAN_POINT ( 'NONE',  ( -7.500000000000000000, 5.000000000000000000, 1000.000000000000000 ) ) ;
#128 = DIRECTION ( 'NONE',  ( 0.0000000000000000000, -1.000000000000000000, 0.0000000000000000000 ) ) ;
#129 = DIRECTION ( 'NONE',  ( 0.0000000000000000000, -0.0000000000000000000, -1.000000000000000000 ) ) ;
#130 = PLANE ( 'NONE',  #225 ) ;
#131 = CARTESIAN_POINT ( 'NONE',  ( 7.500000000000000000, 5.000000000000000000, 1000.000000000000000 ) ) ;
#132 = DIRECTION ( 'NONE',  ( -1.000000000000000000, -8.673617379884035500E-017, 0.0000000000000000000 ) ) ;
#133 = DIRECTION ( 'NONE',  ( 8.673617379884035500E-017, -1.000000000000000000, 0.0000000000000000000 ) ) ;
#134 = PLANE ( 'NONE',  #193 ) ;
#135 = CARTESIAN_POINT ( 'NONE',  ( 0.0000000000000000000, 0.0000000000000000000, 1000.000000000000000 ) ) ;
#136 = DIRECTION ( 'NONE',  ( -0.0000000000000000000, 0.0000000000000000000, 1.000000000000000000 ) ) ;
#137 = DIRECTION ( 'NONE',  ( 1.000000000000000000, 0.0000000000000000000, 0.0000000000000000000 ) ) ;
#138 = PLANE ( 'NONE',  #207 ) ;
#139 = CARTESIAN_POINT ( 'NONE',  ( -7.500000000000000000, -5.000000000000000000, 1000.000000000000000 ) ) ;
#140 = DIRECTION ( 'NONE',  ( 0.0000000000000000000, 1.000000000000000000, 0.0000000000000000000 ) ) ;
#141 = DIRECTION ( 'NONE',  ( 0.0000000000000000000, -0.0000000000000000000, 1.000000000000000000 ) ) ;
#142 = LINE ( 'NONE', #143, #40 ) ;
#143 = CARTESIAN_POINT ( 'NONE',  ( -7.500000000000000000, 5.000000000000000000, 1000.000000000000000 ) ) ;
#144 = DIRECTION ( 'NONE',  ( -1.000000000000000000, -0.0000000000000000000, -0.0000000000000000000 ) ) ;
#145 = LINE ( 'NONE', #163, #201 ) ;
#146 = LINE ( 'NONE', #147, #194 ) ;
#147 = CARTESIAN_POINT ( 'NONE',  ( -7.500000000000000000, 5.000000000000000000, -1000.000000000000000 ) ) ;
#148 = DIRECTION ( 'NONE',  ( -1.000000000000000000, -0.0000000000000000000, -0.0000000000000000000 ) ) ;
#149 = LINE ( 'NONE', #150, #192 ) ;
#150 = CARTESIAN_POINT ( 'NONE',  ( 7.500000000000000000, 5.000000000000000000, 1000.000000000000000 ) ) ;
#151 = DIRECTION ( 'NONE',  ( -8.673617379884035500E-017, 1.000000000000000000, -0.0000000000000000000 ) ) ;
#152 = LINE ( 'NONE', #153, #206 ) ;
#153 = CARTESIAN_POINT ( 'NONE',  ( 7.500000000000000000, 5.000000000000000000, -1000.000000000000000 ) ) ;
#154 = DIRECTION ( 'NONE',  ( -8.673617379884035500E-017, 1.000000000000000000, -0.0000000000000000000 ) ) ;
#155 = LINE ( 'NONE', #156, #199 ) ;
#156 = CARTESIAN_POINT ( 'NONE',  ( -7.500000000000000000, 5.000000000000000000, 1000.000000000000000 ) ) ;
#157 = DIRECTION ( 'NONE',  ( -0.0000000000000000000, -0.0000000000000000000, -1.000000000000000000 ) ) ;
#158 = LINE ( 'NONE', #159, #200 ) ;
#159 = CARTESIAN_POINT ( 'NONE',  ( -7.500000000000000000, 5.000000000000000000, 1000.000000000000000 ) ) ;
#160 = DIRECTION ( 'NONE',  ( 0.0000000000000000000, -1.000000000000000000, 0.0000000000000000000 ) ) ;
#161 = CARTESIAN_POINT ( 'NONE',  ( 7.500000000000000900, -5.000000000000000000, -1000.000000000000000 ) ) ;
#162 = CARTESIAN_POINT ( 'NONE',  ( 7.500000000000000000, 5.000000000000000000, -1000.000000000000000 ) ) ;
#163 = CARTESIAN_POINT ( 'NONE',  ( 7.500000000000000000, 5.000000000000000000, 1000.000000000000000 ) ) ;
#164 = DIRECTION ( 'NONE',  ( -0.0000000000000000000, -0.0000000000000000000, -1.000000000000000000 ) ) ;
#165 = LINE ( 'NONE', #166, #202 ) ;
#166 = CARTESIAN_POINT ( 'NONE',  ( -7.500000000000000000, -5.000000000000000000, 1000.000000000000000 ) ) ;
#167 = PRODUCT_DEFINITION_SHAPE ( 'NONE', 'NONE',  #13 ) ;
#168 = DESIGN_CONTEXT ( 'detailed design', #170, 'design' ) ;
#169 = APPLICATION_CONTEXT ( 'configuration controlled 3d designs of mechanical parts and assemblies' ) ;
#170 = APPLICATION_CONTEXT ( 'configuration controlled 3d designs of mechanical parts and assemblies' ) ;
#171 = LOCAL_TIME ( 10, 58, 2.000000000000000000, #185 ) ;
#172 = CC_DESIGN_DATE_AND_TIME_ASSIGNMENT ( #64, #65, ( #13 ) ) ;
#173 = APPROVAL ( #67, 'UNSPECIFIED' ) ;
#174 = LOCAL_TIME ( 10, 58, 2.000000000000000000, #189 ) ;
#175 = CC_DESIGN_PERSON_AND_ORGANIZATION_ASSIGNMENT ( #71, #72, ( #187 ) ) ;
#176 = CC_DESIGN_PERSON_AND_ORGANIZATION_ASSIGNMENT ( #73, #74, ( #187 ) ) ;
#177 = CC_DESIGN_PERSON_AND_ORGANIZATION_ASSIGNMENT ( #76, #77, ( #16 ) ) ;
#178 = LOCAL_TIME ( 10, 58, 2.000000000000000000, #17 ) ;
#179 = CC_DESIGN_DATE_AND_TIME_ASSIGNMENT ( #78, #79, ( #16 ) ) ;
#180 = APPROVAL ( #42, 'UNSPECIFIED' ) ;
#181 = LOCAL_TIME ( 10, 58, 2.000000000000000000, #20 ) ;
#182 = PRODUCT_RELATED_PRODUCT_CATEGORY ( 'detail', '', ( #228 ) ) ;
#183 = FACE_OUTER_BOUND ( 'NONE', #106, .T. ) ;
#184 = FACE_OUTER_BOUND ( 'NONE', #111, .T. ) ;
#185 = COORDINATED_UNIVERSAL_TIME_OFFSET ( 9, 0, .AHEAD. ) ;
#186 = CALENDAR_DATE ( 2013, 13, 5 ) ;
#187 = PRODUCT_DEFINITION_FORMATION_WITH_SPECIFIED_SOURCE ( 'ANY', '', #228, .NOT_KNOWN. ) ;
#188 = APPROVAL_PERSON_ORGANIZATION ( #66, #173, #68 ) ;
#189 = COORDINATED_UNIVERSAL_TIME_OFFSET ( 9, 0, .AHEAD. ) ;
#190 = CALENDAR_DATE ( 2013, 13, 5 ) ;
#191 = CC_DESIGN_APPROVAL ( #173, ( #187 ) ) ;
#192 = VECTOR ( 'NONE', #151, 1000.000000000000000 ) ;
#193 = AXIS2_PLACEMENT_3D ( 'NONE', #135, #136, #137 ) ;
#194 = VECTOR ( 'NONE', #148, 1000.000000000000000 ) ;
#195 = PERSON ( 'UNSPECIFIED', 'UNSPECIFIED', 'UNSPECIFIED', ('UNSPECIFIED'), ('UNSPECIFIED'), ('UNSPECIFIED') ) ;
#196 = UNCERTAINTY_MEASURE_WITH_UNIT (LENGTH_MEASURE( 1.000000000000000100E-005 ), #32, 'distance_accuracy_value', 'NONE');
#197 = ADVANCED_BREP_SHAPE_REPRESENTATION ( 'sone3D', ( #224, #205 ), #198 ) ;
#198 =( GEOMETRIC_REPRESENTATION_CONTEXT ( 3 ) GLOBAL_UNCERTAINTY_ASSIGNED_CONTEXT ( ( #196 ) ) GLOBAL_UNIT_ASSIGNED_CONTEXT ( ( #32, #46, #47 ) ) REPRESENTATION_CONTEXT ( 'NONE', 'WORKASPACE' ) );
#199 = VECTOR ( 'NONE', #157, 1000.000000000000000 ) ;
#200 = VECTOR ( 'NONE', #160, 1000.000000000000000 ) ;
#201 = VECTOR ( 'NONE', #164, 1000.000000000000000 ) ;
#202 = VECTOR ( 'NONE', #227, 1000.000000000000000 ) ;
#203 = VECTOR ( 'NONE', #37, 1000.000000000000000 ) ;
#204 = VECTOR ( 'NONE', #28, 1000.000000000000000 ) ;
#205 = AXIS2_PLACEMENT_3D ( 'NONE', #49, #50, #51 ) ;
#206 = VECTOR ( 'NONE', #154, 1000.000000000000000 ) ;
#207 = AXIS2_PLACEMENT_3D ( 'NONE', #139, #140, #141 ) ;
#208 = FACE_OUTER_BOUND ( 'NONE', #108, .T. ) ;
#209 = VECTOR ( 'NONE', #114, 1000.000000000000000 ) ;
#210 = CLOSED_SHELL ( 'NONE', ( #4, #8, #6, #5, #7, #3 ) ) ;
#211 = FACE_OUTER_BOUND ( 'NONE', #107, .T. ) ;
#212 = EDGE_CURVE ( 'NONE', #232, #81, #145, .T. ) ;
#213 = APPROVAL ( #58, 'UNSPECIFIED' ) ;
#214 = LOCAL_TIME ( 10, 58, 2.000000000000000000, #217 ) ;
#215 = ORGANIZATION ( 'UNSPECIFIED', 'UNSPECIFIED', '' ) ;
#216 = APPROVAL_PERSON_ORGANIZATION ( #57, #213, #59 ) ;
#217 = COORDINATED_UNIVERSAL_TIME_OFFSET ( 9, 0, .AHEAD. ) ;
#218 = CALENDAR_DATE ( 2013, 13, 5 ) ;
#219 = CC_DESIGN_APPROVAL ( #213, ( #13 ) ) ;
#220 = CC_DESIGN_PERSON_AND_ORGANIZATION_ASSIGNMENT ( #54, #55, ( #228 ) ) ;
#221 = EDGE_CURVE ( 'NONE', #229, #234, #165, .T. ) ;
#222 = EDGE_CURVE ( 'NONE', #234, #80, #33, .T. ) ;
#223 = EDGE_CURVE ( 'NONE', #231, #80, #36, .T. ) ;
#224 = MANIFOLD_SOLID_BREP ( 'ÎÞ½ - µoµ1', #210 ) ;
#225 = AXIS2_PLACEMENT_3D ( 'NONE', #131, #132, #133 ) ;
#226 = FACE_OUTER_BOUND ( 'NONE', #110, .T. ) ;
#227 = DIRECTION ( 'NONE',  ( 1.000000000000000000, 0.0000000000000000000, 0.0000000000000000000 ) ) ;
#228 = PRODUCT ( 'sone3D', 'sone3D', '', ( #53 ) ) ;
#229 = VERTEX_POINT ( 'NONE', #30 ) ;
#230 = VERTEX_POINT ( 'NONE', #26 ) ;
#231 = VERTEX_POINT ( 'NONE', #31 ) ;
#232 = VERTEX_POINT ( 'NONE', #27 ) ;
#233 = VERTEX_POINT ( 'NONE', #25 ) ;
#234 = VERTEX_POINT ( 'NONE', #34 ) ;
#235 = AXIS2_PLACEMENT_3D ( 'NONE', #119, #120, #121 ) ;
#236 = AXIS2_PLACEMENT_3D ( 'NONE', #123, #124, #125 ) ;
#237 = VECTOR ( 'NONE', #118, 1000.000000000000000 ) ;
ENDSEC;
END-ISO-10303-21;
