ISO-10303-21;
HEADER;
FILE_DESCRIPTION (( 'STEP AP203' ),
    '1' );
FILE_NAME ('sone3D.STEP',
    '2013-05-13T01:57:24',
    ( '' ),
    ( '' ),
    'SwSTEP 2.0',
    'SolidWorks 2012',
    '' );
FILE_SCHEMA (( 'CONFIG_CONTROL_DESIGN' ));
ENDSEC;

DATA;
#1 = AXIS2_PLACEMENT_3D ( 'NONE', #191, #192, #193 ) ;
#2 = VECTOR ( 'NONE', #176, 1000.000000000000000 ) ;
#3 = VECTOR ( 'NONE', #180, 1000.000000000000000 ) ;
#4 = VECTOR ( 'NONE', #183, 1000.000000000000000 ) ;
#5 = CC_DESIGN_PERSON_AND_ORGANIZATION_ASSIGNMENT ( #207, #208, ( #13 ) ) ;
#6 = PRODUCT_DEFINITION_FORMATION_WITH_SPECIFIED_SOURCE ( 'ANY', '', #13, .NOT_KNOWN. ) ;
#7 = APPROVAL_PERSON_ORGANIZATION ( #219, #123, #221 ) ;
#8 = COORDINATED_UNIVERSAL_TIME_OFFSET ( 9, 0, .AHEAD. ) ;
#9 = CALENDAR_DATE ( 2013, 13, 5 ) ;
#10 = CC_DESIGN_APPROVAL ( #123, ( #6 ) ) ;
#11 = SECURITY_CLASSIFICATION ( '', '', #228 ) ;
#12 = COORDINATED_UNIVERSAL_TIME_OFFSET ( 9, 0, .AHEAD. ) ;
#13 = PRODUCT ( 'sone3D', 'sone3D', '', ( #206 ) ) ;
#14 = PLANE ( 'NONE',  #154 ) ;
#15 = VECTOR ( 'NONE', #64, 1000.000000000000000 ) ;
#16 = ORIENTED_EDGE ( 'NONE', *, *, #133, .F. ) ;
#17 = ORIENTED_EDGE ( 'NONE', *, *, #142, .F. ) ;
#18 = ORIENTED_EDGE ( 'NONE', *, *, #113, .T. ) ;
#19 = ORIENTED_EDGE ( 'NONE', *, *, #135, .T. ) ;
#20 = ORIENTED_EDGE ( 'NONE', *, *, #136, .F. ) ;
#21 = ORIENTED_EDGE ( 'NONE', *, *, #134, .F. ) ;
#22 = ORIENTED_EDGE ( 'NONE', *, *, #142, .T. ) ;
#23 = ORIENTED_EDGE ( 'NONE', *, *, #111, .F. ) ;
#24 = EDGE_LOOP ( 'NONE', ( #19, #21, #20, #22 ) ) ;
#25 = EDGE_LOOP ( 'NONE', ( #43, #32, #31, #33 ) ) ;
#26 = EDGE_LOOP ( 'NONE', ( #34, #17, #16, #18 ) ) ;
#27 = EDGE_LOOP ( 'NONE', ( #44, #45, #23, #47 ) ) ;
#28 = EDGE_LOOP ( 'NONE', ( #48, #49, #50, #46 ) ) ;
#29 = EDGE_LOOP ( 'NONE', ( #52, #53, #30, #51 ) ) ;
#30 = ORIENTED_EDGE ( 'NONE', *, *, #135, .F. ) ;
#31 = ORIENTED_EDGE ( 'NONE', *, *, #140, .F. ) ;
#32 = ORIENTED_EDGE ( 'NONE', *, *, #113, .F. ) ;
#33 = ORIENTED_EDGE ( 'NONE', *, *, #141, .T. ) ;
#34 = ORIENTED_EDGE ( 'NONE', *, *, #143, .T. ) ;
#35 = VERTEX_POINT ( 'NONE', #54 ) ;
#36 = VERTEX_POINT ( 'NONE', #55 ) ;
#37 = VERTEX_POINT ( 'NONE', #56 ) ;
#38 = VERTEX_POINT ( 'NONE', #57 ) ;
#39 = VERTEX_POINT ( 'NONE', #58 ) ;
#40 = VERTEX_POINT ( 'NONE', #59 ) ;
#41 = VERTEX_POINT ( 'NONE', #60 ) ;
#42 = VERTEX_POINT ( 'NONE', #61 ) ;
#43 = ORIENTED_EDGE ( 'NONE', *, *, #114, .T. ) ;
#44 = ORIENTED_EDGE ( 'NONE', *, *, #110, .T. ) ;
#45 = ORIENTED_EDGE ( 'NONE', *, *, #141, .F. ) ;
#46 = ORIENTED_EDGE ( 'NONE', *, *, #111, .T. ) ;
#47 = ORIENTED_EDGE ( 'NONE', *, *, #134, .T. ) ;
#48 = ORIENTED_EDGE ( 'NONE', *, *, #140, .T. ) ;
#49 = ORIENTED_EDGE ( 'NONE', *, *, #133, .T. ) ;
#50 = ORIENTED_EDGE ( 'NONE', *, *, #136, .T. ) ;
#51 = ORIENTED_EDGE ( 'NONE', *, *, #143, .F. ) ;
#52 = ORIENTED_EDGE ( 'NONE', *, *, #114, .F. ) ;
#53 = ORIENTED_EDGE ( 'NONE', *, *, #110, .F. ) ;
#54 = CARTESIAN_POINT ( 'NONE',  ( -5.000000000000000000, 5.000000000000000900, -1000.000000000000000 ) ) ;
#55 = CARTESIAN_POINT ( 'NONE',  ( 5.000000000000000000, -4.999999999999999100, -1000.000000000000000 ) ) ;
#56 = CARTESIAN_POINT ( 'NONE',  ( -5.000000000000000000, 5.000000000000000900, 1000.000000000000000 ) ) ;
#57 = CARTESIAN_POINT ( 'NONE',  ( -5.000000000000000000, -5.000000000000000900, 1000.000000000000000 ) ) ;
#58 = CARTESIAN_POINT ( 'NONE',  ( -5.000000000000000000, -5.000000000000000900, -1000.000000000000000 ) ) ;
#59 = CARTESIAN_POINT ( 'NONE',  ( 5.000000000000000000, -4.999999999999999100, 1000.000000000000000 ) ) ;
#60 = CARTESIAN_POINT ( 'NONE',  ( 5.000000000000000000, 5.000000000000000000, 1000.000000000000000 ) ) ;
#61 = CARTESIAN_POINT ( 'NONE',  ( 5.000000000000000000, 5.000000000000000000, -1000.000000000000000 ) ) ;
#62 = LINE ( 'NONE', #63, #15 ) ;
#63 = CARTESIAN_POINT ( 'NONE',  ( -5.000000000000000000, 5.000000000000000900, -1000.000000000000000 ) ) ;
#64 = DIRECTION ( 'NONE',  ( -1.000000000000000000, 8.673617379884035500E-017, -0.0000000000000000000 ) ) ;
#65 = PLANE ( 'NONE',  #156 ) ;
#66 = LINE ( 'NONE', #67, #96 ) ;
#67 = CARTESIAN_POINT ( 'NONE',  ( -5.000000000000000000, 5.000000000000000900, 1000.000000000000000 ) ) ;
#68 = DIRECTION ( 'NONE',  ( -1.000000000000000000, 8.673617379884035500E-017, -0.0000000000000000000 ) ) ;
#69 = LINE ( 'NONE', #70, #149 ) ;
#70 = CARTESIAN_POINT ( 'NONE',  ( -5.000000000000000000, -5.000000000000000900, 1000.000000000000000 ) ) ;
#71 = DIRECTION ( 'NONE',  ( -0.0000000000000000000, -0.0000000000000000000, -1.000000000000000000 ) ) ;
#72 = LINE ( 'NONE', #73, #150 ) ;
#73 = CARTESIAN_POINT ( 'NONE',  ( -5.000000000000000000, 5.000000000000000900, -1000.000000000000000 ) ) ;
#74 = DIRECTION ( 'NONE',  ( 0.0000000000000000000, -1.000000000000000000, 0.0000000000000000000 ) ) ;
#75 = LINE ( 'NONE', #76, #152 ) ;
#76 = CARTESIAN_POINT ( 'NONE',  ( -5.000000000000000000, -5.000000000000000900, 1000.000000000000000 ) ) ;
#77 = DIRECTION ( 'NONE',  ( 1.000000000000000000, 1.734723475976807100E-016, 0.0000000000000000000 ) ) ;
#78 = LINE ( 'NONE', #79, #153 ) ;
#79 = CARTESIAN_POINT ( 'NONE',  ( 5.000000000000000000, 5.000000000000000000, 1000.000000000000000 ) ) ;
#80 = DIRECTION ( 'NONE',  ( -0.0000000000000000000, -0.0000000000000000000, -1.000000000000000000 ) ) ;
#81 = LINE ( 'NONE', #82, #155 ) ;
#82 = CARTESIAN_POINT ( 'NONE',  ( 5.000000000000000000, 5.000000000000000000, -1000.000000000000000 ) ) ;
#83 = DIRECTION ( 'NONE',  ( -0.0000000000000000000, 1.000000000000000000, -0.0000000000000000000 ) ) ;
#84 = LINE ( 'NONE', #85, #158 ) ;
#85 = CARTESIAN_POINT ( 'NONE',  ( 5.000000000000000000, 5.000000000000000000, 1000.000000000000000 ) ) ;
#86 = DIRECTION ( 'NONE',  ( -0.0000000000000000000, 1.000000000000000000, -0.0000000000000000000 ) ) ;
#87 = CARTESIAN_POINT ( 'NONE',  ( -5.000000000000000000, 5.000000000000000900, 1000.000000000000000 ) ) ;
#88 = DIRECTION ( 'NONE',  ( -8.673617379884035500E-017, -1.000000000000000000, 0.0000000000000000000 ) ) ;
#89 = DIRECTION ( 'NONE',  ( 1.000000000000000000, -8.673617379884035500E-017, 0.0000000000000000000 ) ) ;
#90 = AXIS2_PLACEMENT_3D ( 'NONE', #187, #188, #189 ) ;
#91 = VECTOR ( 'NONE', #186, 1000.000000000000000 ) ;
#92 = FACE_OUTER_BOUND ( 'NONE', #26, .T. ) ;
#93 = FACE_OUTER_BOUND ( 'NONE', #24, .T. ) ;
#94 = AXIS2_PLACEMENT_3D ( 'NONE', #195, #196, #197 ) ;
#95 = CLOSED_SHELL ( 'NONE', ( #144, #146, #145, #137, #138, #139 ) ) ;
#96 = VECTOR ( 'NONE', #68, 1000.000000000000000 ) ;
#97 = PRODUCT_DEFINITION_SHAPE ( 'NONE', 'NONE',  #117 ) ;
#98 =( GEOMETRIC_REPRESENTATION_CONTEXT ( 3 ) GLOBAL_UNCERTAINTY_ASSIGNED_CONTEXT ( ( #109 ) ) GLOBAL_UNIT_ASSIGNED_CONTEXT ( ( #198, #199, #200 ) ) REPRESENTATION_CONTEXT ( 'NONE', 'WORKASPACE' ) );
#99 = ORGANIZATION ( 'UNSPECIFIED', 'UNSPECIFIED', '' ) ;
#100 = APPROVAL_PERSON_ORGANIZATION ( #210, #118, #212 ) ;
#101 = COORDINATED_UNIVERSAL_TIME_OFFSET ( 9, 0, .AHEAD. ) ;
#102 = CALENDAR_DATE ( 2013, 13, 5 ) ;
#103 = CC_DESIGN_APPROVAL ( #118, ( #117 ) ) ;
#104 = COORDINATED_UNIVERSAL_TIME_OFFSET ( 9, 0, .AHEAD. ) ;
#105 = CALENDAR_DATE ( 2013, 13, 5 ) ;
#106 = FACE_OUTER_BOUND ( 'NONE', #25, .T. ) ;
#107 = PERSON ( 'UNSPECIFIED', 'UNSPECIFIED', 'UNSPECIFIED', ('UNSPECIFIED'), ('UNSPECIFIED'), ('UNSPECIFIED') ) ;
#108 = ADVANCED_BREP_SHAPE_REPRESENTATION ( 'sone3D', ( #148, #112 ), #98 ) ;
#109 = UNCERTAINTY_MEASURE_WITH_UNIT (LENGTH_MEASURE( 1.000000000000000100E-005 ), #198, 'distance_accuracy_value', 'NONE');
#110 = EDGE_CURVE ( 'NONE', #42, #35, #62, .T. ) ;
#111 = EDGE_CURVE ( 'NONE', #41, #37, #66, .T. ) ;
#112 = AXIS2_PLACEMENT_3D ( 'NONE', #202, #203, #204 ) ;
#113 = EDGE_CURVE ( 'NONE', #38, #39, #69, .T. ) ;
#114 = EDGE_CURVE ( 'NONE', #35, #39, #72, .T. ) ;
#115 = APPLICATION_CONTEXT ( 'configuration controlled 3d designs of mechanical parts and assemblies' ) ;
#116 = APPLICATION_CONTEXT ( 'configuration controlled 3d designs of mechanical parts and assemblies' ) ;
#117 = PRODUCT_DEFINITION ( 'UNKNOWN', '', #6, #147 ) ;
#118 = APPROVAL ( #211, 'UNSPECIFIED' ) ;
#119 = LOCAL_TIME ( 10, 57, 24.00000000000000000, #101 ) ;
#120 = CC_DESIGN_PERSON_AND_ORGANIZATION_ASSIGNMENT ( #215, #216, ( #117 ) ) ;
#121 = LOCAL_TIME ( 10, 57, 24.00000000000000000, #104 ) ;
#122 = CC_DESIGN_DATE_AND_TIME_ASSIGNMENT ( #217, #218, ( #117 ) ) ;
#123 = APPROVAL ( #220, 'UNSPECIFIED' ) ;
#124 = LOCAL_TIME ( 10, 57, 24.00000000000000000, #8 ) ;
#125 = CC_DESIGN_PERSON_AND_ORGANIZATION_ASSIGNMENT ( #224, #225, ( #6 ) ) ;
#126 = CC_DESIGN_PERSON_AND_ORGANIZATION_ASSIGNMENT ( #226, #227, ( #6 ) ) ;
#127 = CC_DESIGN_PERSON_AND_ORGANIZATION_ASSIGNMENT ( #229, #230, ( #11 ) ) ;
#128 = LOCAL_TIME ( 10, 57, 24.00000000000000000, #12 ) ;
#129 = CC_DESIGN_DATE_AND_TIME_ASSIGNMENT ( #231, #232, ( #11 ) ) ;
#130 = APPROVAL ( #234, 'UNSPECIFIED' ) ;
#131 = LOCAL_TIME ( 10, 57, 24.00000000000000000, #163 ) ;
#132 = PRODUCT_RELATED_PRODUCT_CATEGORY ( 'detail', '', ( #13 ) ) ;
#133 = EDGE_CURVE ( 'NONE', #38, #40, #75, .T. ) ;
#134 = EDGE_CURVE ( 'NONE', #41, #42, #78, .T. ) ;
#135 = EDGE_CURVE ( 'NONE', #36, #42, #81, .T. ) ;
#136 = EDGE_CURVE ( 'NONE', #40, #41, #84, .T. ) ;
#137 = ADVANCED_FACE ( 'NONE', ( #151 ), #65, .F. ) ;
#138 = ADVANCED_FACE ( 'NONE', ( #159 ), #14, .T. ) ;
#139 = ADVANCED_FACE ( 'NONE', ( #157 ), #170, .F. ) ;
#140 = EDGE_CURVE ( 'NONE', #37, #38, #174, .T. ) ;
#141 = EDGE_CURVE ( 'NONE', #37, #35, #178, .T. ) ;
#142 = EDGE_CURVE ( 'NONE', #40, #36, #181, .T. ) ;
#143 = EDGE_CURVE ( 'NONE', #39, #36, #184, .T. ) ;
#144 = ADVANCED_FACE ( 'NONE', ( #106 ), #177, .F. ) ;
#145 = ADVANCED_FACE ( 'NONE', ( #93 ), #190, .F. ) ;
#146 = ADVANCED_FACE ( 'NONE', ( #92 ), #194, .F. ) ;
#147 = DESIGN_CONTEXT ( 'detailed design', #116, 'design' ) ;
#148 = MANIFOLD_SOLID_BREP ( 'ÎÞ½ - µoµ1', #95 ) ;
#149 = VECTOR ( 'NONE', #71, 1000.000000000000000 ) ;
#150 = VECTOR ( 'NONE', #74, 1000.000000000000000 ) ;
#151 = FACE_OUTER_BOUND ( 'NONE', #27, .T. ) ;
#152 = VECTOR ( 'NONE', #77, 1000.000000000000000 ) ;
#153 = VECTOR ( 'NONE', #80, 1000.000000000000000 ) ;
#154 = AXIS2_PLACEMENT_3D ( 'NONE', #167, #168, #169 ) ;
#155 = VECTOR ( 'NONE', #83, 1000.000000000000000 ) ;
#156 = AXIS2_PLACEMENT_3D ( 'NONE', #87, #88, #89 ) ;
#157 = FACE_OUTER_BOUND ( 'NONE', #29, .T. ) ;
#158 = VECTOR ( 'NONE', #86, 1000.000000000000000 ) ;
#159 = FACE_OUTER_BOUND ( 'NONE', #28, .T. ) ;
#160 = AXIS2_PLACEMENT_3D ( 'NONE', #171, #172, #173 ) ;
#161 = CALENDAR_DATE ( 2013, 13, 5 ) ;
#162 = APPROVAL_PERSON_ORGANIZATION ( #233, #130, #235 ) ;
#163 = COORDINATED_UNIVERSAL_TIME_OFFSET ( 9, 0, .AHEAD. ) ;
#164 = CALENDAR_DATE ( 2013, 13, 5 ) ;
#165 = CC_DESIGN_APPROVAL ( #130, ( #11 ) ) ;
#166 = CC_DESIGN_SECURITY_CLASSIFICATION ( #11, ( #6 ) ) ;
#167 = CARTESIAN_POINT ( 'NONE',  ( 0.0000000000000000000, 0.0000000000000000000, 1000.000000000000000 ) ) ;
#168 = DIRECTION ( 'NONE',  ( -0.0000000000000000000, 0.0000000000000000000, 1.000000000000000000 ) ) ;
#169 = DIRECTION ( 'NONE',  ( 1.000000000000000000, 0.0000000000000000000, 0.0000000000000000000 ) ) ;
#170 = PLANE ( 'NONE',  #160 ) ;
#171 = CARTESIAN_POINT ( 'NONE',  ( 0.0000000000000000000, 0.0000000000000000000, -1000.000000000000000 ) ) ;
#172 = DIRECTION ( 'NONE',  ( -0.0000000000000000000, 0.0000000000000000000, 1.000000000000000000 ) ) ;
#173 = DIRECTION ( 'NONE',  ( 1.000000000000000000, 0.0000000000000000000, 0.0000000000000000000 ) ) ;
#174 = LINE ( 'NONE', #175, #2 ) ;
#175 = CARTESIAN_POINT ( 'NONE',  ( -5.000000000000000000, 5.000000000000000900, 1000.000000000000000 ) ) ;
#176 = DIRECTION ( 'NONE',  ( 0.0000000000000000000, -1.000000000000000000, 0.0000000000000000000 ) ) ;
#177 = PLANE ( 'NONE',  #90 ) ;
#178 = LINE ( 'NONE', #179, #3 ) ;
#179 = CARTESIAN_POINT ( 'NONE',  ( -5.000000000000000000, 5.000000000000000900, 1000.000000000000000 ) ) ;
#180 = DIRECTION ( 'NONE',  ( -0.0000000000000000000, -0.0000000000000000000, -1.000000000000000000 ) ) ;
#181 = LINE ( 'NONE', #182, #4 ) ;
#182 = CARTESIAN_POINT ( 'NONE',  ( 5.000000000000000000, -4.999999999999999100, 1000.000000000000000 ) ) ;
#183 = DIRECTION ( 'NONE',  ( -0.0000000000000000000, -0.0000000000000000000, -1.000000000000000000 ) ) ;
#184 = LINE ( 'NONE', #185, #91 ) ;
#185 = CARTESIAN_POINT ( 'NONE',  ( -5.000000000000000000, -5.000000000000000900, -1000.000000000000000 ) ) ;
#186 = DIRECTION ( 'NONE',  ( 1.000000000000000000, 1.734723475976807100E-016, 0.0000000000000000000 ) ) ;
#187 = CARTESIAN_POINT ( 'NONE',  ( -5.000000000000000000, 5.000000000000000900, 1000.000000000000000 ) ) ;
#188 = DIRECTION ( 'NONE',  ( 1.000000000000000000, 0.0000000000000000000, -0.0000000000000000000 ) ) ;
#189 = DIRECTION ( 'NONE',  ( -0.0000000000000000000, 0.0000000000000000000, -1.000000000000000000 ) ) ;
#190 = PLANE ( 'NONE',  #1 ) ;
#191 = CARTESIAN_POINT ( 'NONE',  ( 5.000000000000000000, 5.000000000000000000, 1000.000000000000000 ) ) ;
#192 = DIRECTION ( 'NONE',  ( -1.000000000000000000, 0.0000000000000000000, 0.0000000000000000000 ) ) ;
#193 = DIRECTION ( 'NONE',  ( 0.0000000000000000000, 0.0000000000000000000, 1.000000000000000000 ) ) ;
#194 = PLANE ( 'NONE',  #94 ) ;
#195 = CARTESIAN_POINT ( 'NONE',  ( -5.000000000000000000, -5.000000000000000900, 1000.000000000000000 ) ) ;
#196 = DIRECTION ( 'NONE',  ( -1.734723475976807100E-016, 1.000000000000000000, 0.0000000000000000000 ) ) ;
#197 = DIRECTION ( 'NONE',  ( -1.000000000000000000, -1.734723475976807100E-016, 0.0000000000000000000 ) ) ;
#198 =( LENGTH_UNIT ( ) NAMED_UNIT ( * ) SI_UNIT ( .MILLI., .METRE. ) );
#199 =( NAMED_UNIT ( * ) PLANE_ANGLE_UNIT ( ) SI_UNIT ( $, .RADIAN. ) );
#200 =( NAMED_UNIT ( * ) SI_UNIT ( $, .STERADIAN. ) SOLID_ANGLE_UNIT ( ) );
#201 = APPLICATION_PROTOCOL_DEFINITION ( 'international standard', 'config_control_design', 1994, #115 ) ;
#202 = CARTESIAN_POINT ( 'NONE',  ( 0.0000000000000000000, 0.0000000000000000000, 0.0000000000000000000 ) ) ;
#203 = DIRECTION ( 'NONE',  ( 0.0000000000000000000, 0.0000000000000000000, 1.000000000000000000 ) ) ;
#204 = DIRECTION ( 'NONE',  ( 1.000000000000000000, 0.0000000000000000000, 0.0000000000000000000 ) ) ;
#205 = SHAPE_DEFINITION_REPRESENTATION ( #97, #108 ) ;
#206 = MECHANICAL_CONTEXT ( 'NONE', #115, 'mechanical' ) ;
#207 = PERSON_AND_ORGANIZATION ( #107, #99 ) ;
#208 = PERSON_AND_ORGANIZATION_ROLE ( 'design_owner' ) ;
#209 = APPLICATION_PROTOCOL_DEFINITION ( 'international standard', 'config_control_design', 1994, #116 ) ;
#210 = PERSON_AND_ORGANIZATION ( #107, #99 ) ;
#211 = APPROVAL_STATUS ( 'not_yet_approved' ) ;
#212 = APPROVAL_ROLE ( '' ) ;
#213 = DATE_AND_TIME ( #102, #119 ) ;
#214 = APPROVAL_DATE_TIME ( #213, #118 ) ;
#215 = PERSON_AND_ORGANIZATION ( #107, #99 ) ;
#216 = PERSON_AND_ORGANIZATION_ROLE ( 'creator' ) ;
#217 = DATE_AND_TIME ( #105, #121 ) ;
#218 = DATE_TIME_ROLE ( 'creation_date' ) ;
#219 = PERSON_AND_ORGANIZATION ( #107, #99 ) ;
#220 = APPROVAL_STATUS ( 'not_yet_approved' ) ;
#221 = APPROVAL_ROLE ( '' ) ;
#222 = DATE_AND_TIME ( #9, #124 ) ;
#223 = APPROVAL_DATE_TIME ( #222, #123 ) ;
#224 = PERSON_AND_ORGANIZATION ( #107, #99 ) ;
#225 = PERSON_AND_ORGANIZATION_ROLE ( 'creator' ) ;
#226 = PERSON_AND_ORGANIZATION ( #107, #99 ) ;
#227 = PERSON_AND_ORGANIZATION_ROLE ( 'design_supplier' ) ;
#228 = SECURITY_CLASSIFICATION_LEVEL ( 'unclassified' ) ;
#229 = PERSON_AND_ORGANIZATION ( #107, #99 ) ;
#230 = PERSON_AND_ORGANIZATION_ROLE ( 'classification_officer' ) ;
#231 = DATE_AND_TIME ( #161, #128 ) ;
#232 = DATE_TIME_ROLE ( 'classification_date' ) ;
#233 = PERSON_AND_ORGANIZATION ( #107, #99 ) ;
#234 = APPROVAL_STATUS ( 'not_yet_approved' ) ;
#235 = APPROVAL_ROLE ( '' ) ;
#236 = DATE_AND_TIME ( #164, #131 ) ;
#237 = APPROVAL_DATE_TIME ( #236, #130 ) ;
ENDSEC;
END-ISO-10303-21;
