ISO-10303-21;
HEADER;
FILE_DESCRIPTION (( 'STEP AP203' ),
    '1' );
FILE_NAME ('ª®3D.STEP',
    '2013-05-09T05:43:04',
    ( '11sw' ),
    ( '^LQ»¢®ïÐ' ),
    'SwSTEP 2.0',
    'SolidWorks 2012',
    '' );
FILE_SCHEMA (( 'CONFIG_CONTROL_DESIGN' ));
ENDSEC;

DATA;
#1 = CARTESIAN_POINT ( 'NONE',  ( -2.500000000000000400, 2.500000000000000000, 1000.000000000000000 ) ) ;
#2 = LINE ( 'NONE', #1, #165 ) ;
#3 = DIRECTION ( 'NONE',  ( -1.000000000000000000, -0.0000000000000000000, -0.0000000000000000000 ) ) ;
#4 = CARTESIAN_POINT ( 'NONE',  ( -2.500000000000000400, 2.500000000000000000, -1000.000000000000000 ) ) ;
#5 = LINE ( 'NONE', #4, #143 ) ;
#6 = DIRECTION ( 'NONE',  ( -0.0000000000000000000, 1.000000000000000000, -0.0000000000000000000 ) ) ;
#7 = CARTESIAN_POINT ( 'NONE',  ( 2.500000000000000400, 2.500000000000000000, 1000.000000000000000 ) ) ;
#8 = LINE ( 'NONE', #7, #177 ) ;
#9 = DIRECTION ( 'NONE',  ( 1.000000000000000000, 0.0000000000000000000, 0.0000000000000000000 ) ) ;
#10 = CARTESIAN_POINT ( 'NONE',  ( -2.500000000000000400, -2.500000000000000000, -1000.000000000000000 ) ) ;
#11 = LINE ( 'NONE', #10, #160 ) ;
#12 = PLANE ( 'NONE',  #161 ) ;
#13 = DIRECTION ( 'NONE',  ( -0.0000000000000000000, 1.000000000000000000, -0.0000000000000000000 ) ) ;
#14 = CARTESIAN_POINT ( 'NONE',  ( 2.500000000000000400, 2.500000000000000000, -1000.000000000000000 ) ) ;
#15 = LINE ( 'NONE', #14, #163 ) ;
#16 = DIRECTION ( 'NONE',  ( -0.0000000000000000000, 0.0000000000000000000, -1.000000000000000000 ) ) ;
#17 = DIRECTION ( 'NONE',  ( 1.000000000000000000, 0.0000000000000000000, -0.0000000000000000000 ) ) ;
#18 = CARTESIAN_POINT ( 'NONE',  ( -2.500000000000000400, 2.500000000000000000, 1000.000000000000000 ) ) ;
#19 = PLANE ( 'NONE',  #145 ) ;
#20 = DIRECTION ( 'NONE',  ( 0.0000000000000000000, 0.0000000000000000000, 1.000000000000000000 ) ) ;
#21 = DIRECTION ( 'NONE',  ( -1.000000000000000000, 0.0000000000000000000, 0.0000000000000000000 ) ) ;
#22 = CARTESIAN_POINT ( 'NONE',  ( 2.500000000000000400, 2.500000000000000000, 1000.000000000000000 ) ) ;
#23 = PLANE ( 'NONE',  #164 ) ;
#24 = DIRECTION ( 'NONE',  ( 0.0000000000000000000, -1.000000000000000000, 0.0000000000000000000 ) ) ;
#25 = CARTESIAN_POINT ( 'NONE',  ( -2.500000000000000400, 2.500000000000000000, 1000.000000000000000 ) ) ;
#26 = LINE ( 'NONE', #25, #144 ) ;
#27 = CARTESIAN_POINT ( 'NONE',  ( -2.500000000000000400, -2.500000000000000000, 1000.000000000000000 ) ) ;
#28 = CARTESIAN_POINT ( 'NONE',  ( 2.500000000000000400, 2.500000000000000000, -1000.000000000000000 ) ) ;
#29 = CARTESIAN_POINT ( 'NONE',  ( 2.500000000000000400, -2.500000000000000000, 1000.000000000000000 ) ) ;
#30 = CARTESIAN_POINT ( 'NONE',  ( 2.500000000000000400, 2.500000000000000000, 1000.000000000000000 ) ) ;
#31 = CARTESIAN_POINT ( 'NONE',  ( -2.500000000000000400, 2.500000000000000000, -1000.000000000000000 ) ) ;
#32 = CARTESIAN_POINT ( 'NONE',  ( -2.500000000000000400, 2.500000000000000000, 1000.000000000000000 ) ) ;
#33 = CARTESIAN_POINT ( 'NONE',  ( -2.500000000000000400, -2.500000000000000000, -1000.000000000000000 ) ) ;
#34 = CARTESIAN_POINT ( 'NONE',  ( 2.500000000000000400, -2.500000000000000000, -1000.000000000000000 ) ) ;
#35 = VERTEX_POINT ( 'NONE', #34 ) ;
#36 = VERTEX_POINT ( 'NONE', #33 ) ;
#37 = VERTEX_POINT ( 'NONE', #32 ) ;
#38 = VERTEX_POINT ( 'NONE', #31 ) ;
#39 = VERTEX_POINT ( 'NONE', #30 ) ;
#40 = VERTEX_POINT ( 'NONE', #29 ) ;
#41 = VERTEX_POINT ( 'NONE', #28 ) ;
#42 = VERTEX_POINT ( 'NONE', #27 ) ;
#43 = EDGE_LOOP ( 'NONE', ( #215, #214, #222, #218 ) ) ;
#44 = EDGE_LOOP ( 'NONE', ( #55, #216, #217, #219 ) ) ;
#45 = EDGE_LOOP ( 'NONE', ( #54, #52, #49, #53 ) ) ;
#46 = EDGE_LOOP ( 'NONE', ( #225, #220, #221, #56 ) ) ;
#47 = EDGE_LOOP ( 'NONE', ( #224, #50, #213, #228 ) ) ;
#48 = EDGE_LOOP ( 'NONE', ( #51, #227, #223, #226 ) ) ;
#49 = ORIENTED_EDGE ( 'NONE', *, *, #191, .F. ) ;
#50 = ORIENTED_EDGE ( 'NONE', *, *, #201, .F. ) ;
#51 = ORIENTED_EDGE ( 'NONE', *, *, #182, .T. ) ;
#52 = ORIENTED_EDGE ( 'NONE', *, *, #185, .F. ) ;
#53 = ORIENTED_EDGE ( 'NONE', *, *, #201, .T. ) ;
#54 = ORIENTED_EDGE ( 'NONE', *, *, #184, .T. ) ;
#55 = ORIENTED_EDGE ( 'NONE', *, *, #178, .T. ) ;
#56 = ORIENTED_EDGE ( 'NONE', *, *, #185, .T. ) ;
#57 = LINE ( 'NONE', #59, #149 ) ;
#58 = DIRECTION ( 'NONE',  ( -0.0000000000000000000, -0.0000000000000000000, -1.000000000000000000 ) ) ;
#59 = CARTESIAN_POINT ( 'NONE',  ( -2.500000000000000400, -2.500000000000000000, 1000.000000000000000 ) ) ;
#60 = DIRECTION ( 'NONE',  ( 1.000000000000000000, 0.0000000000000000000, 0.0000000000000000000 ) ) ;
#61 = CARTESIAN_POINT ( 'NONE',  ( -2.500000000000000400, -2.500000000000000000, 1000.000000000000000 ) ) ;
#62 = DIRECTION ( 'NONE',  ( 0.0000000000000000000, 1.000000000000000000, 0.0000000000000000000 ) ) ;
#63 = DIRECTION ( 'NONE',  ( 0.0000000000000000000, -0.0000000000000000000, 1.000000000000000000 ) ) ;
#64 = LINE ( 'NONE', #65, #153 ) ;
#65 = CARTESIAN_POINT ( 'NONE',  ( 2.500000000000000400, -2.500000000000000000, 1000.000000000000000 ) ) ;
#66 = DIRECTION ( 'NONE',  ( -0.0000000000000000000, -0.0000000000000000000, -1.000000000000000000 ) ) ;
#67 = PLANE ( 'NONE',  #174 ) ;
#68 = LINE ( 'NONE', #69, #159 ) ;
#69 = CARTESIAN_POINT ( 'NONE',  ( -2.500000000000000400, 2.500000000000000000, 1000.000000000000000 ) ) ;
#70 = DIRECTION ( 'NONE',  ( -1.000000000000000000, -0.0000000000000000000, -0.0000000000000000000 ) ) ;
#71 = CARTESIAN_POINT ( 'NONE',  ( 0.0000000000000000000, 0.0000000000000000000, 1000.000000000000000 ) ) ;
#72 = DIRECTION ( 'NONE',  ( -0.0000000000000000000, 0.0000000000000000000, 1.000000000000000000 ) ) ;
#73 = DIRECTION ( 'NONE',  ( 1.000000000000000000, 0.0000000000000000000, 0.0000000000000000000 ) ) ;
#74 = LINE ( 'NONE', #75, #147 ) ;
#75 = CARTESIAN_POINT ( 'NONE',  ( -2.500000000000000400, 2.500000000000000000, -1000.000000000000000 ) ) ;
#76 = DIRECTION ( 'NONE',  ( 0.0000000000000000000, -1.000000000000000000, 0.0000000000000000000 ) ) ;
#77 = PLANE ( 'NONE',  #138 ) ;
#78 = LINE ( 'NONE', #79, #162 ) ;
#79 = CARTESIAN_POINT ( 'NONE',  ( -2.500000000000000400, -2.500000000000000000, 1000.000000000000000 ) ) ;
#80 = DIRECTION ( 'NONE',  ( -0.0000000000000000000, -0.0000000000000000000, -1.000000000000000000 ) ) ;
#81 = CARTESIAN_POINT ( 'NONE',  ( -2.500000000000000400, 2.500000000000000000, 1000.000000000000000 ) ) ;
#82 = DIRECTION ( 'NONE',  ( 0.0000000000000000000, -1.000000000000000000, 0.0000000000000000000 ) ) ;
#83 = DIRECTION ( 'NONE',  ( 0.0000000000000000000, -0.0000000000000000000, -1.000000000000000000 ) ) ;
#84 = LINE ( 'NONE', #85, #154 ) ;
#85 = CARTESIAN_POINT ( 'NONE',  ( 2.500000000000000400, 2.500000000000000000, 1000.000000000000000 ) ) ;
#86 = DIRECTION ( 'NONE',  ( -0.0000000000000000000, -0.0000000000000000000, -1.000000000000000000 ) ) ;
#87 = PLANE ( 'NONE',  #152 ) ;
#88 = CARTESIAN_POINT ( 'NONE',  ( 0.0000000000000000000, 0.0000000000000000000, -1000.000000000000000 ) ) ;
#89 = DIRECTION ( 'NONE',  ( -0.0000000000000000000, 0.0000000000000000000, 1.000000000000000000 ) ) ;
#90 = DIRECTION ( 'NONE',  ( 1.000000000000000000, 0.0000000000000000000, 0.0000000000000000000 ) ) ;
#91 =( LENGTH_UNIT ( ) NAMED_UNIT ( * ) SI_UNIT ( .MILLI., .METRE. ) );
#92 =( NAMED_UNIT ( * ) PLANE_ANGLE_UNIT ( ) SI_UNIT ( $, .RADIAN. ) );
#93 =( NAMED_UNIT ( * ) SI_UNIT ( $, .STERADIAN. ) SOLID_ANGLE_UNIT ( ) );
#94 = APPLICATION_PROTOCOL_DEFINITION ( 'international standard', 'config_control_design', 1994, #233 ) ;
#95 = CARTESIAN_POINT ( 'NONE',  ( 0.0000000000000000000, 0.0000000000000000000, 0.0000000000000000000 ) ) ;
#96 = DIRECTION ( 'NONE',  ( 0.0000000000000000000, 0.0000000000000000000, 1.000000000000000000 ) ) ;
#97 = DIRECTION ( 'NONE',  ( 1.000000000000000000, 0.0000000000000000000, 0.0000000000000000000 ) ) ;
#98 = SHAPE_DEFINITION_REPRESENTATION ( #230, #237 ) ;
#99 = MECHANICAL_CONTEXT ( 'NONE', #233, 'mechanical' ) ;
#100 = PERSON_AND_ORGANIZATION ( #235, #166 ) ;
#101 = PERSON_AND_ORGANIZATION_ROLE ( 'design_owner' ) ;
#102 = APPLICATION_PROTOCOL_DEFINITION ( 'international standard', 'config_control_design', 1994, #232 ) ;
#103 = PERSON_AND_ORGANIZATION ( #235, #166 ) ;
#104 = APPROVAL_STATUS ( 'not_yet_approved' ) ;
#105 = APPROVAL_ROLE ( '' ) ;
#106 = DATE_AND_TIME ( #155, #210 ) ;
#107 = APPROVAL_DATE_TIME ( #106, #207 ) ;
#108 = PERSON_AND_ORGANIZATION ( #235, #166 ) ;
#109 = PERSON_AND_ORGANIZATION_ROLE ( 'creator' ) ;
#110 = DATE_AND_TIME ( #137, #208 ) ;
#111 = DATE_TIME_ROLE ( 'creation_date' ) ;
#112 = PERSON_AND_ORGANIZATION ( #235, #166 ) ;
#113 = APPROVAL_STATUS ( 'not_yet_approved' ) ;
#114 = APPROVAL_ROLE ( '' ) ;
#115 = DATE_AND_TIME ( #142, #192 ) ;
#116 = APPROVAL_DATE_TIME ( #115, #202 ) ;
#117 = PERSON_AND_ORGANIZATION ( #235, #166 ) ;
#118 = PERSON_AND_ORGANIZATION_ROLE ( 'creator' ) ;
#119 = PERSON_AND_ORGANIZATION ( #235, #166 ) ;
#120 = PERSON_AND_ORGANIZATION_ROLE ( 'design_supplier' ) ;
#121 = SECURITY_CLASSIFICATION_LEVEL ( 'unclassified' ) ;
#122 = PERSON_AND_ORGANIZATION ( #235, #166 ) ;
#123 = PERSON_AND_ORGANIZATION_ROLE ( 'classification_officer' ) ;
#124 = DATE_AND_TIME ( #141, #200 ) ;
#125 = DATE_TIME_ROLE ( 'classification_date' ) ;
#126 = PERSON_AND_ORGANIZATION ( #235, #166 ) ;
#127 = APPROVAL_STATUS ( 'not_yet_approved' ) ;
#128 = APPROVAL_ROLE ( '' ) ;
#129 = DATE_AND_TIME ( #168, #204 ) ;
#130 = APPROVAL_DATE_TIME ( #129, #203 ) ;
#131 =( GEOMETRIC_REPRESENTATION_CONTEXT ( 3 ) GLOBAL_UNCERTAINTY_ASSIGNED_CONTEXT ( ( #236 ) ) GLOBAL_UNIT_ASSIGNED_CONTEXT ( ( #91, #92, #93 ) ) REPRESENTATION_CONTEXT ( 'NONE', 'WORKASPACE' ) );
#132 = FACE_OUTER_BOUND ( 'NONE', #45, .T. ) ;
#133 = FACE_OUTER_BOUND ( 'NONE', #43, .T. ) ;
#134 = CC_DESIGN_APPROVAL ( #207, ( #195 ) ) ;
#135 = SECURITY_CLASSIFICATION ( '', '', #121 ) ;
#136 = CC_DESIGN_APPROVAL ( #203, ( #135 ) ) ;
#137 = CALENDAR_DATE ( 2013, 9, 5 ) ;
#138 = AXIS2_PLACEMENT_3D ( 'NONE', #81, #82, #83 ) ;
#139 = AXIS2_PLACEMENT_3D ( 'NONE', #95, #96, #97 ) ;
#140 = FACE_OUTER_BOUND ( 'NONE', #48, .T. ) ;
#141 = CALENDAR_DATE ( 2013, 9, 5 ) ;
#142 = CALENDAR_DATE ( 2013, 9, 5 ) ;
#143 = VECTOR ( 'NONE', #3, 1000.000000000000000 ) ;
#144 = VECTOR ( 'NONE', #24, 1000.000000000000000 ) ;
#145 = AXIS2_PLACEMENT_3D ( 'NONE', #18, #17, #16 ) ;
#146 = CLOSED_SHELL ( 'NONE', ( #180, #187, #179, #199, #196, #212 ) ) ;
#147 = VECTOR ( 'NONE', #76, 1000.000000000000000 ) ;
#148 = APPROVAL_PERSON_ORGANIZATION ( #112, #202, #114 ) ;
#149 = VECTOR ( 'NONE', #60, 1000.000000000000000 ) ;
#150 = COORDINATED_UNIVERSAL_TIME_OFFSET ( 9, 0, .AHEAD. ) ;
#151 = APPROVAL_PERSON_ORGANIZATION ( #103, #207, #105 ) ;
#152 = AXIS2_PLACEMENT_3D ( 'NONE', #88, #89, #90 ) ;
#153 = VECTOR ( 'NONE', #66, 1000.000000000000000 ) ;
#154 = VECTOR ( 'NONE', #86, 1000.000000000000000 ) ;
#155 = CALENDAR_DATE ( 2013, 9, 5 ) ;
#156 = FACE_OUTER_BOUND ( 'NONE', #46, .T. ) ;
#157 = APPROVAL_PERSON_ORGANIZATION ( #126, #203, #128 ) ;
#158 = COORDINATED_UNIVERSAL_TIME_OFFSET ( 9, 0, .AHEAD. ) ;
#159 = VECTOR ( 'NONE', #70, 1000.000000000000000 ) ;
#160 = VECTOR ( 'NONE', #9, 1000.000000000000000 ) ;
#161 = AXIS2_PLACEMENT_3D ( 'NONE', #61, #62, #63 ) ;
#162 = VECTOR ( 'NONE', #80, 1000.000000000000000 ) ;
#163 = VECTOR ( 'NONE', #13, 1000.000000000000000 ) ;
#164 = AXIS2_PLACEMENT_3D ( 'NONE', #22, #21, #20 ) ;
#165 = VECTOR ( 'NONE', #58, 1000.000000000000000 ) ;
#166 = ORGANIZATION ( 'UNSPECIFIED', 'UNSPECIFIED', '' ) ;
#167 = COORDINATED_UNIVERSAL_TIME_OFFSET ( 9, 0, .AHEAD. ) ;
#168 = CALENDAR_DATE ( 2013, 9, 5 ) ;
#169 = PRODUCT_DEFINITION_FORMATION_WITH_SPECIFIED_SOURCE ( 'ANY', '', #234, .NOT_KNOWN. ) ;
#170 = COORDINATED_UNIVERSAL_TIME_OFFSET ( 9, 0, .AHEAD. ) ;
#171 = COORDINATED_UNIVERSAL_TIME_OFFSET ( 9, 0, .AHEAD. ) ;
#172 = CC_DESIGN_APPROVAL ( #202, ( #169 ) ) ;
#173 = FACE_OUTER_BOUND ( 'NONE', #47, .T. ) ;
#174 = AXIS2_PLACEMENT_3D ( 'NONE', #71, #72, #73 ) ;
#175 = FACE_OUTER_BOUND ( 'NONE', #44, .T. ) ;
#176 = CC_DESIGN_SECURITY_CLASSIFICATION ( #135, ( #169 ) ) ;
#177 = VECTOR ( 'NONE', #6, 1000.000000000000000 ) ;
#178 = EDGE_CURVE ( 'NONE', #37, #42, #26, .T. ) ;
#179 = ADVANCED_FACE ( 'NONE', ( #173 ), #23, .F. ) ;
#180 = ADVANCED_FACE ( 'NONE', ( #156 ), #19, .F. ) ;
#181 = EDGE_CURVE ( 'NONE', #35, #41, #15, .T. ) ;
#182 = EDGE_CURVE ( 'NONE', #36, #35, #11, .T. ) ;
#183 = EDGE_CURVE ( 'NONE', #40, #39, #8, .T. ) ;
#184 = EDGE_CURVE ( 'NONE', #41, #38, #5, .T. ) ;
#185 = EDGE_CURVE ( 'NONE', #37, #38, #2, .T. ) ;
#186 = EDGE_CURVE ( 'NONE', #42, #40, #57, .T. ) ;
#187 = ADVANCED_FACE ( 'NONE', ( #140 ), #12, .F. ) ;
#188 = CC_DESIGN_PERSON_AND_ORGANIZATION_ASSIGNMENT ( #119, #120, ( #169 ) ) ;
#189 = EDGE_CURVE ( 'NONE', #40, #35, #64, .T. ) ;
#190 = CC_DESIGN_PERSON_AND_ORGANIZATION_ASSIGNMENT ( #108, #109, ( #195 ) ) ;
#191 = EDGE_CURVE ( 'NONE', #39, #37, #68, .T. ) ;
#192 = LOCAL_TIME ( 14, 43, 4.000000000000000000, #150 ) ;
#193 = PRODUCT_RELATED_PRODUCT_CATEGORY ( 'detail', '', ( #234 ) ) ;
#194 = CC_DESIGN_PERSON_AND_ORGANIZATION_ASSIGNMENT ( #100, #101, ( #234 ) ) ;
#195 = PRODUCT_DEFINITION ( 'UNKNOWN', '', #169, #231 ) ;
#196 = ADVANCED_FACE ( 'NONE', ( #175 ), #67, .T. ) ;
#197 = EDGE_CURVE ( 'NONE', #38, #36, #74, .T. ) ;
#198 = EDGE_CURVE ( 'NONE', #42, #36, #78, .T. ) ;
#199 = ADVANCED_FACE ( 'NONE', ( #132 ), #77, .F. ) ;
#200 = LOCAL_TIME ( 14, 43, 4.000000000000000000, #170 ) ;
#201 = EDGE_CURVE ( 'NONE', #39, #41, #84, .T. ) ;
#202 = APPROVAL ( #113, 'UNSPECIFIED' ) ;
#203 = APPROVAL ( #127, 'UNSPECIFIED' ) ;
#204 = LOCAL_TIME ( 14, 43, 4.000000000000000000, #158 ) ;
#205 = CC_DESIGN_PERSON_AND_ORGANIZATION_ASSIGNMENT ( #122, #123, ( #135 ) ) ;
#206 = CC_DESIGN_DATE_AND_TIME_ASSIGNMENT ( #124, #125, ( #135 ) ) ;
#207 = APPROVAL ( #104, 'UNSPECIFIED' ) ;
#208 = LOCAL_TIME ( 14, 43, 4.000000000000000000, #167 ) ;
#209 = CC_DESIGN_DATE_AND_TIME_ASSIGNMENT ( #110, #111, ( #195 ) ) ;
#210 = LOCAL_TIME ( 14, 43, 4.000000000000000000, #171 ) ;
#211 = CC_DESIGN_PERSON_AND_ORGANIZATION_ASSIGNMENT ( #117, #118, ( #169 ) ) ;
#212 = ADVANCED_FACE ( 'NONE', ( #133 ), #87, .F. ) ;
#213 = ORIENTED_EDGE ( 'NONE', *, *, #183, .F. ) ;
#214 = ORIENTED_EDGE ( 'NONE', *, *, #184, .F. ) ;
#215 = ORIENTED_EDGE ( 'NONE', *, *, #197, .F. ) ;
#216 = ORIENTED_EDGE ( 'NONE', *, *, #186, .T. ) ;
#217 = ORIENTED_EDGE ( 'NONE', *, *, #183, .T. ) ;
#218 = ORIENTED_EDGE ( 'NONE', *, *, #182, .F. ) ;
#219 = ORIENTED_EDGE ( 'NONE', *, *, #191, .T. ) ;
#220 = ORIENTED_EDGE ( 'NONE', *, *, #198, .F. ) ;
#221 = ORIENTED_EDGE ( 'NONE', *, *, #178, .F. ) ;
#222 = ORIENTED_EDGE ( 'NONE', *, *, #181, .F. ) ;
#223 = ORIENTED_EDGE ( 'NONE', *, *, #186, .F. ) ;
#224 = ORIENTED_EDGE ( 'NONE', *, *, #181, .T. ) ;
#225 = ORIENTED_EDGE ( 'NONE', *, *, #197, .T. ) ;
#226 = ORIENTED_EDGE ( 'NONE', *, *, #198, .T. ) ;
#227 = ORIENTED_EDGE ( 'NONE', *, *, #189, .F. ) ;
#228 = ORIENTED_EDGE ( 'NONE', *, *, #189, .T. ) ;
#229 = MANIFOLD_SOLID_BREP ( 'ÎÞ½ - µoµ1', #146 ) ;
#230 = PRODUCT_DEFINITION_SHAPE ( 'NONE', 'NONE',  #195 ) ;
#231 = DESIGN_CONTEXT ( 'detailed design', #232, 'design' ) ;
#232 = APPLICATION_CONTEXT ( 'configuration controlled 3d designs of mechanical parts and assemblies' ) ;
#233 = APPLICATION_CONTEXT ( 'configuration controlled 3d designs of mechanical parts and assemblies' ) ;
#234 = PRODUCT ( 'ª®3D', 'ª®3D', '', ( #99 ) ) ;
#235 = PERSON ( 'UNSPECIFIED', 'UNSPECIFIED', 'UNSPECIFIED', ('UNSPECIFIED'), ('UNSPECIFIED'), ('UNSPECIFIED') ) ;
#236 = UNCERTAINTY_MEASURE_WITH_UNIT (LENGTH_MEASURE( 1.000000000000000100E-005 ), #91, 'distance_accuracy_value', 'NONE');
#237 = ADVANCED_BREP_SHAPE_REPRESENTATION ( 'ª®3D', ( #229, #139 ), #131 ) ;
ENDSEC;
END-ISO-10303-21;
