ISO-10303-21;
HEADER;
FILE_DESCRIPTION (( 'STEP AP203' ),
    '1' );
FILE_NAME ('ª®3D.STEP',
    '2013-05-09T05:42:19',
    ( '11sw' ),
    ( '^LQ»¢®ïÐ' ),
    'SwSTEP 2.0',
    'SolidWorks 2012',
    '' );
FILE_SCHEMA (( 'CONFIG_CONTROL_DESIGN' ));
ENDSEC;

DATA;
#1 = APPLICATION_CONTEXT ( 'configuration controlled 3d designs of mechanical parts and assemblies' ) ;
#2 = APPLICATION_CONTEXT ( 'configuration controlled 3d designs of mechanical parts and assemblies' ) ;
#3 = FACE_OUTER_BOUND ( 'NONE', #147, .T. ) ;
#4 = COORDINATED_UNIVERSAL_TIME_OFFSET ( 9, 0, .AHEAD. ) ;
#5 = VECTOR ( 'NONE', #190, 1000.000000000000000 ) ;
#6 = VECTOR ( 'NONE', #177, 1000.000000000000000 ) ;
#7 = VECTOR ( 'NONE', #214, 1000.000000000000000 ) ;
#8 = VECTOR ( 'NONE', #205, 1000.000000000000000 ) ;
#9 = CALENDAR_DATE ( 2013, 9, 5 ) ;
#10 = VECTOR ( 'NONE', #218, 1000.000000000000000 ) ;
#11 = FACE_OUTER_BOUND ( 'NONE', #146, .T. ) ;
#12 = AXIS2_PLACEMENT_3D ( 'NONE', #185, #186, #187 ) ;
#13 = VECTOR ( 'NONE', #204, 1000.000000000000000 ) ;
#14 = VECTOR ( 'NONE', #166, 1000.000000000000000 ) ;
#15 = APPROVAL_PERSON_ORGANIZATION ( #82, #103, #84 ) ;
#16 = AXIS2_PLACEMENT_3D ( 'NONE', #172, #173, #174 ) ;
#17 = CALENDAR_DATE ( 2013, 9, 5 ) ;
#18 = CALENDAR_DATE ( 2013, 9, 5 ) ;
#19 = SECURITY_CLASSIFICATION ( '', '', #77 ) ;
#20 = APPROVAL_PERSON_ORGANIZATION ( #59, #115, #61 ) ;
#21 = FACE_OUTER_BOUND ( 'NONE', #151, .T. ) ;
#22 = AXIS2_PLACEMENT_3D ( 'NONE', #161, #162, #163 ) ;
#23 = COORDINATED_UNIVERSAL_TIME_OFFSET ( 9, 0, .AHEAD. ) ;
#24 = CALENDAR_DATE ( 2013, 9, 5 ) ;
#25 = COORDINATED_UNIVERSAL_TIME_OFFSET ( 9, 0, .AHEAD. ) ;
#26 = CC_DESIGN_APPROVAL ( #103, ( #19 ) ) ;
#27 = AXIS2_PLACEMENT_3D ( 'NONE', #206, #201, #198 ) ;
#28 = FACE_OUTER_BOUND ( 'NONE', #149, .T. ) ;
#29 = PRODUCT_DEFINITION_FORMATION_WITH_SPECIFIED_SOURCE ( 'ANY', '', #87, .NOT_KNOWN. ) ;
#30 = CLOSED_SHELL ( 'NONE', ( #95, #113, #91, #90, #106, #88 ) ) ;
#31 = FACE_OUTER_BOUND ( 'NONE', #150, .T. ) ;
#32 = FACE_OUTER_BOUND ( 'NONE', #148, .T. ) ;
#33 = VECTOR ( 'NONE', #181, 1000.000000000000000 ) ;
#34 = CC_DESIGN_APPROVAL ( #115, ( #105 ) ) ;
#35 = AXIS2_PLACEMENT_3D ( 'NONE', #208, #210, #211 ) ;
#36 = COORDINATED_UNIVERSAL_TIME_OFFSET ( 9, 0, .AHEAD. ) ;
#37 = APPROVAL_PERSON_ORGANIZATION ( #68, #97, #70 ) ;
#38 = CC_DESIGN_APPROVAL ( #97, ( #29 ) ) ;
#39 = AXIS2_PLACEMENT_3D ( 'NONE', #50, #51, #52 ) ;
#40 = CC_DESIGN_SECURITY_CLASSIFICATION ( #19, ( #29 ) ) ;
#41 = COORDINATED_UNIVERSAL_TIME_OFFSET ( 9, 0, .AHEAD. ) ;
#42 = VECTOR ( 'NONE', #209, 1000.000000000000000 ) ;
#43 = VECTOR ( 'NONE', #221, 1000.000000000000000 ) ;
#44 = CALENDAR_DATE ( 2013, 9, 5 ) ;
#45 = ORGANIZATION ( 'UNSPECIFIED', 'UNSPECIFIED', '' ) ;
#46 = VECTOR ( 'NONE', #199, 1000.000000000000000 ) ;
#47 = VECTOR ( 'NONE', #184, 1000.000000000000000 ) ;
#48 = AXIS2_PLACEMENT_3D ( 'NONE', #168, #169, #170 ) ;
#49 =( GEOMETRIC_REPRESENTATION_CONTEXT ( 3 ) GLOBAL_UNCERTAINTY_ASSIGNED_CONTEXT ( ( #235 ) ) GLOBAL_UNIT_ASSIGNED_CONTEXT ( ( #229, #236, #237 ) ) REPRESENTATION_CONTEXT ( 'NONE', 'WORKASPACE' ) );
#50 = CARTESIAN_POINT ( 'NONE',  ( 0.0000000000000000000, 0.0000000000000000000, 0.0000000000000000000 ) ) ;
#51 = DIRECTION ( 'NONE',  ( 0.0000000000000000000, 0.0000000000000000000, 1.000000000000000000 ) ) ;
#52 = DIRECTION ( 'NONE',  ( 1.000000000000000000, 0.0000000000000000000, 0.0000000000000000000 ) ) ;
#53 = SHAPE_DEFINITION_REPRESENTATION ( #232, #233 ) ;
#54 = APPLICATION_PROTOCOL_DEFINITION ( 'international standard', 'config_control_design', 1994, #2 ) ;
#55 = MECHANICAL_CONTEXT ( 'NONE', #2, 'mechanical' ) ;
#56 = PERSON_AND_ORGANIZATION ( #234, #45 ) ;
#57 = PERSON_AND_ORGANIZATION_ROLE ( 'design_owner' ) ;
#58 = APPLICATION_PROTOCOL_DEFINITION ( 'international standard', 'config_control_design', 1994, #1 ) ;
#59 = PERSON_AND_ORGANIZATION ( #234, #45 ) ;
#60 = APPROVAL_STATUS ( 'not_yet_approved' ) ;
#61 = APPROVAL_ROLE ( '' ) ;
#62 = DATE_AND_TIME ( #9, #98 ) ;
#63 = APPROVAL_DATE_TIME ( #62, #115 ) ;
#64 = PERSON_AND_ORGANIZATION ( #234, #45 ) ;
#65 = PERSON_AND_ORGANIZATION_ROLE ( 'creator' ) ;
#66 = DATE_AND_TIME ( #17, #117 ) ;
#67 = DATE_TIME_ROLE ( 'creation_date' ) ;
#68 = PERSON_AND_ORGANIZATION ( #234, #45 ) ;
#69 = APPROVAL_STATUS ( 'not_yet_approved' ) ;
#70 = APPROVAL_ROLE ( '' ) ;
#71 = DATE_AND_TIME ( #24, #119 ) ;
#72 = APPROVAL_DATE_TIME ( #71, #97 ) ;
#73 = PERSON_AND_ORGANIZATION ( #234, #45 ) ;
#74 = PERSON_AND_ORGANIZATION_ROLE ( 'creator' ) ;
#75 = PERSON_AND_ORGANIZATION ( #234, #45 ) ;
#76 = PERSON_AND_ORGANIZATION_ROLE ( 'design_supplier' ) ;
#77 = SECURITY_CLASSIFICATION_LEVEL ( 'unclassified' ) ;
#78 = PERSON_AND_ORGANIZATION ( #234, #45 ) ;
#79 = PERSON_AND_ORGANIZATION_ROLE ( 'classification_officer' ) ;
#80 = DATE_AND_TIME ( #18, #114 ) ;
#81 = DATE_TIME_ROLE ( 'classification_date' ) ;
#82 = PERSON_AND_ORGANIZATION ( #234, #45 ) ;
#83 = APPROVAL_STATUS ( 'not_yet_approved' ) ;
#84 = APPROVAL_ROLE ( '' ) ;
#85 = DATE_AND_TIME ( #44, #104 ) ;
#86 = APPROVAL_DATE_TIME ( #85, #103 ) ;
#87 = PRODUCT ( 'ª®3D', 'ª®3D', '', ( #55 ) ) ;
#88 = ADVANCED_FACE ( 'NONE', ( #11 ), #160, .F. ) ;
#89 = EDGE_CURVE ( 'NONE', #156, #152, #164, .T. ) ;
#90 = ADVANCED_FACE ( 'NONE', ( #31 ), #167, .F. ) ;
#91 = ADVANCED_FACE ( 'NONE', ( #3 ), #171, .F. ) ;
#92 = EDGE_CURVE ( 'NONE', #158, #159, #175, .T. ) ;
#93 = EDGE_CURVE ( 'NONE', #153, #157, #179, .T. ) ;
#94 = EDGE_CURVE ( 'NONE', #155, #154, #182, .T. ) ;
#95 = ADVANCED_FACE ( 'NONE', ( #21 ), #178, .F. ) ;
#96 = EDGE_CURVE ( 'NONE', #154, #157, #188, .T. ) ;
#97 = APPROVAL ( #69, 'UNSPECIFIED' ) ;
#98 = LOCAL_TIME ( 14, 42, 19.00000000000000000, #4 ) ;
#99 = CC_DESIGN_PERSON_AND_ORGANIZATION_ASSIGNMENT ( #64, #65, ( #105 ) ) ;
#100 = PRODUCT_RELATED_PRODUCT_CATEGORY ( 'detail', '', ( #87 ) ) ;
#101 = EDGE_CURVE ( 'NONE', #152, #153, #195, .T. ) ;
#102 = EDGE_CURVE ( 'NONE', #158, #156, #193, .T. ) ;
#103 = APPROVAL ( #83, 'UNSPECIFIED' ) ;
#104 = LOCAL_TIME ( 14, 42, 19.00000000000000000, #36 ) ;
#105 = PRODUCT_DEFINITION ( 'UNKNOWN', '', #29, #231 ) ;
#106 = ADVANCED_FACE ( 'NONE', ( #28 ), #194, .T. ) ;
#107 = CC_DESIGN_PERSON_AND_ORGANIZATION_ASSIGNMENT ( #75, #76, ( #29 ) ) ;
#108 = EDGE_CURVE ( 'NONE', #157, #159, #200, .T. ) ;
#109 = CC_DESIGN_DATE_AND_TIME_ASSIGNMENT ( #80, #81, ( #19 ) ) ;
#110 = CC_DESIGN_PERSON_AND_ORGANIZATION_ASSIGNMENT ( #73, #74, ( #29 ) ) ;
#111 = CC_DESIGN_PERSON_AND_ORGANIZATION_ASSIGNMENT ( #78, #79, ( #19 ) ) ;
#112 = EDGE_CURVE ( 'NONE', #156, #155, #196, .T. ) ;
#113 = ADVANCED_FACE ( 'NONE', ( #32 ), #207, .F. ) ;
#114 = LOCAL_TIME ( 14, 42, 19.00000000000000000, #41 ) ;
#115 = APPROVAL ( #60, 'UNSPECIFIED' ) ;
#116 = CC_DESIGN_PERSON_AND_ORGANIZATION_ASSIGNMENT ( #56, #57, ( #87 ) ) ;
#117 = LOCAL_TIME ( 14, 42, 19.00000000000000000, #25 ) ;
#118 = CC_DESIGN_DATE_AND_TIME_ASSIGNMENT ( #66, #67, ( #105 ) ) ;
#119 = LOCAL_TIME ( 14, 42, 19.00000000000000000, #23 ) ;
#120 = EDGE_CURVE ( 'NONE', #155, #153, #212, .T. ) ;
#121 = EDGE_CURVE ( 'NONE', #154, #158, #216, .T. ) ;
#122 = EDGE_CURVE ( 'NONE', #159, #152, #219, .T. ) ;
#123 = ORIENTED_EDGE ( 'NONE', *, *, #101, .T. ) ;
#124 = ORIENTED_EDGE ( 'NONE', *, *, #108, .F. ) ;
#125 = ORIENTED_EDGE ( 'NONE', *, *, #122, .F. ) ;
#126 = ORIENTED_EDGE ( 'NONE', *, *, #101, .F. ) ;
#127 = ORIENTED_EDGE ( 'NONE', *, *, #121, .T. ) ;
#128 = ORIENTED_EDGE ( 'NONE', *, *, #94, .T. ) ;
#129 = ORIENTED_EDGE ( 'NONE', *, *, #112, .T. ) ;
#130 = ORIENTED_EDGE ( 'NONE', *, *, #92, .T. ) ;
#131 = ORIENTED_EDGE ( 'NONE', *, *, #102, .T. ) ;
#132 = ORIENTED_EDGE ( 'NONE', *, *, #89, .F. ) ;
#133 = ORIENTED_EDGE ( 'NONE', *, *, #102, .F. ) ;
#134 = ORIENTED_EDGE ( 'NONE', *, *, #122, .T. ) ;
#135 = ORIENTED_EDGE ( 'NONE', *, *, #121, .F. ) ;
#136 = ORIENTED_EDGE ( 'NONE', *, *, #92, .F. ) ;
#137 = ORIENTED_EDGE ( 'NONE', *, *, #96, .T. ) ;
#138 = ORIENTED_EDGE ( 'NONE', *, *, #93, .T. ) ;
#139 = ORIENTED_EDGE ( 'NONE', *, *, #112, .F. ) ;
#140 = ORIENTED_EDGE ( 'NONE', *, *, #94, .F. ) ;
#141 = ORIENTED_EDGE ( 'NONE', *, *, #108, .T. ) ;
#142 = ORIENTED_EDGE ( 'NONE', *, *, #120, .T. ) ;
#143 = ORIENTED_EDGE ( 'NONE', *, *, #96, .F. ) ;
#144 = ORIENTED_EDGE ( 'NONE', *, *, #120, .F. ) ;
#145 = ORIENTED_EDGE ( 'NONE', *, *, #89, .T. ) ;
#146 = EDGE_LOOP ( 'NONE', ( #126, #125, #124, #192 ) ) ;
#147 = EDGE_LOOP ( 'NONE', ( #141, #136, #135, #137 ) ) ;
#148 = EDGE_LOOP ( 'NONE', ( #138, #143, #140, #142 ) ) ;
#149 = EDGE_LOOP ( 'NONE', ( #129, #128, #127, #131 ) ) ;
#150 = EDGE_LOOP ( 'NONE', ( #134, #132, #133, #130 ) ) ;
#151 = EDGE_LOOP ( 'NONE', ( #123, #144, #139, #145 ) ) ;
#152 = VERTEX_POINT ( 'NONE', #215 ) ;
#153 = VERTEX_POINT ( 'NONE', #222 ) ;
#154 = VERTEX_POINT ( 'NONE', #223 ) ;
#155 = VERTEX_POINT ( 'NONE', #224 ) ;
#156 = VERTEX_POINT ( 'NONE', #225 ) ;
#157 = VERTEX_POINT ( 'NONE', #226 ) ;
#158 = VERTEX_POINT ( 'NONE', #227 ) ;
#159 = VERTEX_POINT ( 'NONE', #228 ) ;
#160 = PLANE ( 'NONE',  #22 ) ;
#161 = CARTESIAN_POINT ( 'NONE',  ( 0.0000000000000000000, 0.0000000000000000000, -1000.000000000000000 ) ) ;
#162 = DIRECTION ( 'NONE',  ( -0.0000000000000000000, 0.0000000000000000000, 1.000000000000000000 ) ) ;
#163 = DIRECTION ( 'NONE',  ( 1.000000000000000000, 0.0000000000000000000, 0.0000000000000000000 ) ) ;
#164 = LINE ( 'NONE', #165, #14 ) ;
#165 = CARTESIAN_POINT ( 'NONE',  ( -10.00000000000000000, 2.500000000000001300, 1000.000000000000000 ) ) ;
#166 = DIRECTION ( 'NONE',  ( -0.0000000000000000000, -0.0000000000000000000, -1.000000000000000000 ) ) ;
#167 = PLANE ( 'NONE',  #48 ) ;
#168 = CARTESIAN_POINT ( 'NONE',  ( -10.00000000000000000, 2.500000000000001300, 1000.000000000000000 ) ) ;
#169 = DIRECTION ( 'NONE',  ( -6.505213034913026600E-017, -1.000000000000000000, 0.0000000000000000000 ) ) ;
#170 = DIRECTION ( 'NONE',  ( 1.000000000000000000, -6.505213034913026600E-017, 0.0000000000000000000 ) ) ;
#171 = PLANE ( 'NONE',  #16 ) ;
#172 = CARTESIAN_POINT ( 'NONE',  ( 10.00000000000000000, 2.500000000000000000, 1000.000000000000000 ) ) ;
#173 = DIRECTION ( 'NONE',  ( -1.000000000000000000, 0.0000000000000000000, 0.0000000000000000000 ) ) ;
#174 = DIRECTION ( 'NONE',  ( 0.0000000000000000000, 0.0000000000000000000, 1.000000000000000000 ) ) ;
#175 = LINE ( 'NONE', #176, #6 ) ;
#176 = CARTESIAN_POINT ( 'NONE',  ( 10.00000000000000000, 2.500000000000000000, 1000.000000000000000 ) ) ;
#177 = DIRECTION ( 'NONE',  ( -0.0000000000000000000, -0.0000000000000000000, -1.000000000000000000 ) ) ;
#178 = PLANE ( 'NONE',  #12 ) ;
#179 = LINE ( 'NONE', #180, #33 ) ;
#180 = CARTESIAN_POINT ( 'NONE',  ( -10.00000000000000000, -2.500000000000001300, -1000.000000000000000 ) ) ;
#181 = DIRECTION ( 'NONE',  ( 1.000000000000000000, 6.505213034913026600E-017, 0.0000000000000000000 ) ) ;
#182 = LINE ( 'NONE', #183, #47 ) ;
#183 = CARTESIAN_POINT ( 'NONE',  ( -10.00000000000000000, -2.500000000000001300, 1000.000000000000000 ) ) ;
#184 = DIRECTION ( 'NONE',  ( 1.000000000000000000, 6.505213034913026600E-017, 0.0000000000000000000 ) ) ;
#185 = CARTESIAN_POINT ( 'NONE',  ( -10.00000000000000000, 2.500000000000001300, 1000.000000000000000 ) ) ;
#186 = DIRECTION ( 'NONE',  ( 1.000000000000000000, 0.0000000000000000000, -0.0000000000000000000 ) ) ;
#187 = DIRECTION ( 'NONE',  ( -0.0000000000000000000, 0.0000000000000000000, -1.000000000000000000 ) ) ;
#188 = LINE ( 'NONE', #189, #5 ) ;
#189 = CARTESIAN_POINT ( 'NONE',  ( 10.00000000000000000, -2.500000000000000000, 1000.000000000000000 ) ) ;
#190 = DIRECTION ( 'NONE',  ( -0.0000000000000000000, -0.0000000000000000000, -1.000000000000000000 ) ) ;
#191 = CARTESIAN_POINT ( 'NONE',  ( -10.00000000000000000, 2.500000000000001300, 1000.000000000000000 ) ) ;
#192 = ORIENTED_EDGE ( 'NONE', *, *, #93, .F. ) ;
#193 = LINE ( 'NONE', #203, #8 ) ;
#194 = PLANE ( 'NONE',  #27 ) ;
#195 = LINE ( 'NONE', #202, #13 ) ;
#196 = LINE ( 'NONE', #191, #42 ) ;
#197 = CARTESIAN_POINT ( 'NONE',  ( 10.00000000000000000, 2.500000000000000000, -1000.000000000000000 ) ) ;
#198 = DIRECTION ( 'NONE',  ( 1.000000000000000000, 0.0000000000000000000, 0.0000000000000000000 ) ) ;
#199 = DIRECTION ( 'NONE',  ( -0.0000000000000000000, 1.000000000000000000, -0.0000000000000000000 ) ) ;
#200 = LINE ( 'NONE', #197, #46 ) ;
#201 = DIRECTION ( 'NONE',  ( -0.0000000000000000000, 0.0000000000000000000, 1.000000000000000000 ) ) ;
#202 = CARTESIAN_POINT ( 'NONE',  ( -10.00000000000000000, 2.500000000000001300, -1000.000000000000000 ) ) ;
#203 = CARTESIAN_POINT ( 'NONE',  ( -10.00000000000000000, 2.500000000000001300, 1000.000000000000000 ) ) ;
#204 = DIRECTION ( 'NONE',  ( 0.0000000000000000000, -1.000000000000000000, 0.0000000000000000000 ) ) ;
#205 = DIRECTION ( 'NONE',  ( -1.000000000000000000, 6.505213034913026600E-017, -0.0000000000000000000 ) ) ;
#206 = CARTESIAN_POINT ( 'NONE',  ( 0.0000000000000000000, 0.0000000000000000000, 1000.000000000000000 ) ) ;
#207 = PLANE ( 'NONE',  #35 ) ;
#208 = CARTESIAN_POINT ( 'NONE',  ( -10.00000000000000000, -2.500000000000001300, 1000.000000000000000 ) ) ;
#209 = DIRECTION ( 'NONE',  ( 0.0000000000000000000, -1.000000000000000000, 0.0000000000000000000 ) ) ;
#210 = DIRECTION ( 'NONE',  ( -6.505213034913026600E-017, 1.000000000000000000, 0.0000000000000000000 ) ) ;
#211 = DIRECTION ( 'NONE',  ( -1.000000000000000000, -6.505213034913026600E-017, 0.0000000000000000000 ) ) ;
#212 = LINE ( 'NONE', #213, #7 ) ;
#213 = CARTESIAN_POINT ( 'NONE',  ( -10.00000000000000000, -2.500000000000001300, 1000.000000000000000 ) ) ;
#214 = DIRECTION ( 'NONE',  ( -0.0000000000000000000, -0.0000000000000000000, -1.000000000000000000 ) ) ;
#215 = CARTESIAN_POINT ( 'NONE',  ( -10.00000000000000000, 2.500000000000001300, -1000.000000000000000 ) ) ;
#216 = LINE ( 'NONE', #217, #10 ) ;
#217 = CARTESIAN_POINT ( 'NONE',  ( 10.00000000000000000, 2.500000000000000000, 1000.000000000000000 ) ) ;
#218 = DIRECTION ( 'NONE',  ( -0.0000000000000000000, 1.000000000000000000, -0.0000000000000000000 ) ) ;
#219 = LINE ( 'NONE', #220, #43 ) ;
#220 = CARTESIAN_POINT ( 'NONE',  ( -10.00000000000000000, 2.500000000000001300, -1000.000000000000000 ) ) ;
#221 = DIRECTION ( 'NONE',  ( -1.000000000000000000, 6.505213034913026600E-017, -0.0000000000000000000 ) ) ;
#222 = CARTESIAN_POINT ( 'NONE',  ( -10.00000000000000000, -2.500000000000001300, -1000.000000000000000 ) ) ;
#223 = CARTESIAN_POINT ( 'NONE',  ( 10.00000000000000000, -2.500000000000000000, 1000.000000000000000 ) ) ;
#224 = CARTESIAN_POINT ( 'NONE',  ( -10.00000000000000000, -2.500000000000001300, 1000.000000000000000 ) ) ;
#225 = CARTESIAN_POINT ( 'NONE',  ( -10.00000000000000000, 2.500000000000001300, 1000.000000000000000 ) ) ;
#226 = CARTESIAN_POINT ( 'NONE',  ( 10.00000000000000000, -2.500000000000000000, -1000.000000000000000 ) ) ;
#227 = CARTESIAN_POINT ( 'NONE',  ( 10.00000000000000000, 2.500000000000000000, 1000.000000000000000 ) ) ;
#228 = CARTESIAN_POINT ( 'NONE',  ( 10.00000000000000000, 2.500000000000000000, -1000.000000000000000 ) ) ;
#229 =( LENGTH_UNIT ( ) NAMED_UNIT ( * ) SI_UNIT ( .MILLI., .METRE. ) );
#230 = MANIFOLD_SOLID_BREP ( 'ÎÞ½ - µoµ1', #30 ) ;
#231 = DESIGN_CONTEXT ( 'detailed design', #1, 'design' ) ;
#232 = PRODUCT_DEFINITION_SHAPE ( 'NONE', 'NONE',  #105 ) ;
#233 = ADVANCED_BREP_SHAPE_REPRESENTATION ( 'ª®3D', ( #230, #39 ), #49 ) ;
#234 = PERSON ( 'UNSPECIFIED', 'UNSPECIFIED', 'UNSPECIFIED', ('UNSPECIFIED'), ('UNSPECIFIED'), ('UNSPECIFIED') ) ;
#235 = UNCERTAINTY_MEASURE_WITH_UNIT (LENGTH_MEASURE( 1.000000000000000100E-005 ), #229, 'distance_accuracy_value', 'NONE');
#236 =( NAMED_UNIT ( * ) PLANE_ANGLE_UNIT ( ) SI_UNIT ( $, .RADIAN. ) );
#237 =( NAMED_UNIT ( * ) SI_UNIT ( $, .STERADIAN. ) SOLID_ANGLE_UNIT ( ) );
ENDSEC;
END-ISO-10303-21;
