ISO-10303-21;
HEADER;
FILE_DESCRIPTION (( 'STEP AP203' ),
    '1' );
FILE_NAME ('ª®3D.STEP',
    '2013-05-09T05:41:36',
    ( '11sw' ),
    ( '^LQ»¢®ïÐ' ),
    'SwSTEP 2.0',
    'SolidWorks 2012',
    '' );
FILE_SCHEMA (( 'CONFIG_CONTROL_DESIGN' ));
ENDSEC;

DATA;
#1 = AXIS2_PLACEMENT_3D ( 'NONE', #138, #139, #140 ) ;
#2 = VECTOR ( 'NONE', #151, 1000.000000000000000 ) ;
#3 = CLOSED_SHELL ( 'NONE', ( #79, #56, #57, #82, #81, #76 ) ) ;
#4 = FACE_OUTER_BOUND ( 'NONE', #109, .T. ) ;
#5 = CALENDAR_DATE ( 2013, 9, 5 ) ;
#6 = VECTOR ( 'NONE', #128, 1000.000000000000000 ) ;
#7 = FACE_OUTER_BOUND ( 'NONE', #111, .T. ) ;
#8 = AXIS2_PLACEMENT_3D ( 'NONE', #142, #143, #144 ) ;
#9 = COORDINATED_UNIVERSAL_TIME_OFFSET ( 9, 0, .AHEAD. ) ;
#10 = SECURITY_CLASSIFICATION ( '', '', #220 ) ;
#11 = VECTOR ( 'NONE', #131, 1000.000000000000000 ) ;
#12 = CALENDAR_DATE ( 2013, 9, 5 ) ;
#13 = CC_DESIGN_APPROVAL ( #75, ( #28 ) ) ;
#14 = AXIS2_PLACEMENT_3D ( 'NONE', #179, #180, #181 ) ;
#15 = APPROVAL_PERSON_ORGANIZATION ( #202, #61, #204 ) ;
#16 = CALENDAR_DATE ( 2013, 9, 5 ) ;
#17 = VECTOR ( 'NONE', #152, 1000.000000000000000 ) ;
#18 = ORGANIZATION ( 'UNSPECIFIED', 'UNSPECIFIED', '' ) ;
#19 = FACE_OUTER_BOUND ( 'NONE', #108, .T. ) ;
#20 = VECTOR ( 'NONE', #123, 1000.000000000000000 ) ;
#21 = FACE_OUTER_BOUND ( 'NONE', #110, .T. ) ;
#22 = FACE_OUTER_BOUND ( 'NONE', #112, .T. ) ;
#23 = AXIS2_PLACEMENT_3D ( 'NONE', #162, #168, #157 ) ;
#24 = VECTOR ( 'NONE', #169, 1000.000000000000000 ) ;
#25 = CC_DESIGN_APPROVAL ( #69, ( #10 ) ) ;
#26 = COORDINATED_UNIVERSAL_TIME_OFFSET ( 9, 0, .AHEAD. ) ;
#27 = VECTOR ( 'NONE', #167, 1000.000000000000000 ) ;
#28 = PRODUCT_DEFINITION_FORMATION_WITH_SPECIFIED_SOURCE ( 'ANY', '', #48, .NOT_KNOWN. ) ;
#29 = VECTOR ( 'NONE', #137, 1000.000000000000000 ) ;
#30 = APPROVAL_PERSON_ORGANIZATION ( #211, #75, #213 ) ;
#31 = COORDINATED_UNIVERSAL_TIME_OFFSET ( 9, 0, .AHEAD. ) ;
#32 = VECTOR ( 'NONE', #145, 1000.000000000000000 ) ;
#33 = AXIS2_PLACEMENT_3D ( 'NONE', #194, #195, #196 ) ;
#34 = VECTOR ( 'NONE', #125, 1000.000000000000000 ) ;
#35 = CALENDAR_DATE ( 2013, 9, 5 ) ;
#36 = AXIS2_PLACEMENT_3D ( 'NONE', #175, #176, #177 ) ;
#37 = CALENDAR_DATE ( 2013, 9, 5 ) ;
#38 = CC_DESIGN_APPROVAL ( #61, ( #80 ) ) ;
#39 = COORDINATED_UNIVERSAL_TIME_OFFSET ( 9, 0, .AHEAD. ) ;
#40 = COORDINATED_UNIVERSAL_TIME_OFFSET ( 9, 0, .AHEAD. ) ;
#41 = FACE_OUTER_BOUND ( 'NONE', #107, .T. ) ;
#42 = CC_DESIGN_SECURITY_CLASSIFICATION ( #10, ( #28 ) ) ;
#43 = APPROVAL_PERSON_ORGANIZATION ( #225, #69, #227 ) ;
#44 = VECTOR ( 'NONE', #158, 1000.000000000000000 ) ;
#45 = AXIS2_PLACEMENT_3D ( 'NONE', #171, #172, #173 ) ;
#46 = VECTOR ( 'NONE', #134, 1000.000000000000000 ) ;
#47 =( GEOMETRIC_REPRESENTATION_CONTEXT ( 3 ) GLOBAL_UNCERTAINTY_ASSIGNED_CONTEXT ( ( #235 ) ) GLOBAL_UNIT_ASSIGNED_CONTEXT ( ( #190, #191, #192 ) ) REPRESENTATION_CONTEXT ( 'NONE', 'WORKASPACE' ) );
#48 = PRODUCT ( 'ª®3D', 'ª®3D', '', ( #198 ) ) ;
#49 = EDGE_CURVE ( 'NONE', #114, #147, #153, .T. ) ;
#50 = EDGE_CURVE ( 'NONE', #115, #113, #121, .T. ) ;
#51 = EDGE_CURVE ( 'NONE', #117, #155, #124, .T. ) ;
#52 = EDGE_CURVE ( 'NONE', #113, #117, #126, .T. ) ;
#53 = EDGE_CURVE ( 'NONE', #116, #114, #129, .T. ) ;
#54 = EDGE_CURVE ( 'NONE', #117, #147, #132, .T. ) ;
#55 = EDGE_CURVE ( 'NONE', #115, #116, #135, .T. ) ;
#56 = ADVANCED_FACE ( 'NONE', ( #4 ), #120, .F. ) ;
#57 = ADVANCED_FACE ( 'NONE', ( #19 ), #141, .F. ) ;
#58 = EDGE_CURVE ( 'NONE', #118, #116, #146, .T. ) ;
#59 = EDGE_CURVE ( 'NONE', #113, #114, #163, .T. ) ;
#60 = EDGE_CURVE ( 'NONE', #155, #115, #164, .T. ) ;
#61 = APPROVAL ( #203, 'UNSPECIFIED' ) ;
#62 = CC_DESIGN_PERSON_AND_ORGANIZATION_ASSIGNMENT ( #207, #208, ( #80 ) ) ;
#63 = CC_DESIGN_DATE_AND_TIME_ASSIGNMENT ( #209, #210, ( #80 ) ) ;
#64 = PRODUCT_RELATED_PRODUCT_CATEGORY ( 'detail', '', ( #48 ) ) ;
#65 = CC_DESIGN_PERSON_AND_ORGANIZATION_ASSIGNMENT ( #199, #200, ( #48 ) ) ;
#66 = LOCAL_TIME ( 14, 41, 36.00000000000000000, #39 ) ;
#67 = CC_DESIGN_PERSON_AND_ORGANIZATION_ASSIGNMENT ( #218, #219, ( #28 ) ) ;
#68 = LOCAL_TIME ( 14, 41, 36.00000000000000000, #40 ) ;
#69 = APPROVAL ( #226, 'UNSPECIFIED' ) ;
#70 = CC_DESIGN_DATE_AND_TIME_ASSIGNMENT ( #223, #224, ( #10 ) ) ;
#71 = LOCAL_TIME ( 14, 41, 36.00000000000000000, #31 ) ;
#72 = CC_DESIGN_PERSON_AND_ORGANIZATION_ASSIGNMENT ( #221, #222, ( #10 ) ) ;
#73 = CC_DESIGN_PERSON_AND_ORGANIZATION_ASSIGNMENT ( #216, #217, ( #28 ) ) ;
#74 = LOCAL_TIME ( 14, 41, 36.00000000000000000, #9 ) ;
#75 = APPROVAL ( #212, 'UNSPECIFIED' ) ;
#76 = ADVANCED_FACE ( 'NONE', ( #41 ), #156, .F. ) ;
#77 = EDGE_CURVE ( 'NONE', #147, #118, #161, .T. ) ;
#78 = EDGE_CURVE ( 'NONE', #155, #118, #149, .T. ) ;
#79 = ADVANCED_FACE ( 'NONE', ( #22 ), #159, .F. ) ;
#80 = PRODUCT_DEFINITION ( 'UNKNOWN', '', #28, #231 ) ;
#81 = ADVANCED_FACE ( 'NONE', ( #21 ), #174, .T. ) ;
#82 = ADVANCED_FACE ( 'NONE', ( #7 ), #178, .F. ) ;
#83 = LOCAL_TIME ( 14, 41, 36.00000000000000000, #26 ) ;
#84 = ORIENTED_EDGE ( 'NONE', *, *, #77, .T. ) ;
#85 = ORIENTED_EDGE ( 'NONE', *, *, #54, .F. ) ;
#86 = ORIENTED_EDGE ( 'NONE', *, *, #49, .T. ) ;
#87 = ORIENTED_EDGE ( 'NONE', *, *, #52, .F. ) ;
#88 = ORIENTED_EDGE ( 'NONE', *, *, #59, .F. ) ;
#89 = ORIENTED_EDGE ( 'NONE', *, *, #55, .T. ) ;
#90 = ORIENTED_EDGE ( 'NONE', *, *, #50, .T. ) ;
#91 = ORIENTED_EDGE ( 'NONE', *, *, #51, .T. ) ;
#92 = ORIENTED_EDGE ( 'NONE', *, *, #49, .F. ) ;
#93 = ORIENTED_EDGE ( 'NONE', *, *, #77, .F. ) ;
#94 = ORIENTED_EDGE ( 'NONE', *, *, #58, .T. ) ;
#95 = ORIENTED_EDGE ( 'NONE', *, *, #58, .F. ) ;
#96 = ORIENTED_EDGE ( 'NONE', *, *, #52, .T. ) ;
#97 = ORIENTED_EDGE ( 'NONE', *, *, #53, .F. ) ;
#98 = ORIENTED_EDGE ( 'NONE', *, *, #53, .T. ) ;
#99 = ORIENTED_EDGE ( 'NONE', *, *, #78, .T. ) ;
#100 = ORIENTED_EDGE ( 'NONE', *, *, #60, .T. ) ;
#101 = ORIENTED_EDGE ( 'NONE', *, *, #59, .T. ) ;
#102 = ORIENTED_EDGE ( 'NONE', *, *, #55, .F. ) ;
#103 = ORIENTED_EDGE ( 'NONE', *, *, #60, .F. ) ;
#104 = ORIENTED_EDGE ( 'NONE', *, *, #51, .F. ) ;
#105 = ORIENTED_EDGE ( 'NONE', *, *, #78, .F. ) ;
#106 = ORIENTED_EDGE ( 'NONE', *, *, #54, .T. ) ;
#107 = EDGE_LOOP ( 'NONE', ( #93, #92, #97, #95 ) ) ;
#108 = EDGE_LOOP ( 'NONE', ( #98, #88, #150, #89 ) ) ;
#109 = EDGE_LOOP ( 'NONE', ( #94, #102, #103, #99 ) ) ;
#110 = EDGE_LOOP ( 'NONE', ( #91, #100, #90, #96 ) ) ;
#111 = EDGE_LOOP ( 'NONE', ( #86, #85, #87, #101 ) ) ;
#112 = EDGE_LOOP ( 'NONE', ( #84, #105, #104, #106 ) ) ;
#113 = VERTEX_POINT ( 'NONE', #182 ) ;
#114 = VERTEX_POINT ( 'NONE', #183 ) ;
#115 = VERTEX_POINT ( 'NONE', #184 ) ;
#116 = VERTEX_POINT ( 'NONE', #185 ) ;
#117 = VERTEX_POINT ( 'NONE', #186 ) ;
#118 = VERTEX_POINT ( 'NONE', #187 ) ;
#119 = CARTESIAN_POINT ( 'NONE',  ( -7.500000000000000000, 2.500000000000001300, 1000.000000000000000 ) ) ;
#120 = PLANE ( 'NONE',  #1 ) ;
#121 = LINE ( 'NONE', #122, #20 ) ;
#122 = CARTESIAN_POINT ( 'NONE',  ( 7.500000000000000000, 2.500000000000000000, 1000.000000000000000 ) ) ;
#123 = DIRECTION ( 'NONE',  ( -0.0000000000000000000, 1.000000000000000000, -0.0000000000000000000 ) ) ;
#124 = LINE ( 'NONE', #119, #34 ) ;
#125 = DIRECTION ( 'NONE',  ( 0.0000000000000000000, -1.000000000000000000, 0.0000000000000000000 ) ) ;
#126 = LINE ( 'NONE', #127, #6 ) ;
#127 = CARTESIAN_POINT ( 'NONE',  ( -7.500000000000000000, 2.500000000000001300, 1000.000000000000000 ) ) ;
#128 = DIRECTION ( 'NONE',  ( -1.000000000000000000, 8.673617379884035500E-017, -0.0000000000000000000 ) ) ;
#129 = LINE ( 'NONE', #130, #11 ) ;
#130 = CARTESIAN_POINT ( 'NONE',  ( 7.500000000000000000, 2.500000000000000000, -1000.000000000000000 ) ) ;
#131 = DIRECTION ( 'NONE',  ( -0.0000000000000000000, 1.000000000000000000, -0.0000000000000000000 ) ) ;
#132 = LINE ( 'NONE', #133, #46 ) ;
#133 = CARTESIAN_POINT ( 'NONE',  ( -7.500000000000000000, 2.500000000000001300, 1000.000000000000000 ) ) ;
#134 = DIRECTION ( 'NONE',  ( -0.0000000000000000000, -0.0000000000000000000, -1.000000000000000000 ) ) ;
#135 = LINE ( 'NONE', #136, #29 ) ;
#136 = CARTESIAN_POINT ( 'NONE',  ( 7.500000000000000000, -2.500000000000000000, 1000.000000000000000 ) ) ;
#137 = DIRECTION ( 'NONE',  ( -0.0000000000000000000, -0.0000000000000000000, -1.000000000000000000 ) ) ;
#138 = CARTESIAN_POINT ( 'NONE',  ( -7.500000000000000000, -2.500000000000001300, 1000.000000000000000 ) ) ;
#139 = DIRECTION ( 'NONE',  ( -8.673617379884035500E-017, 1.000000000000000000, 0.0000000000000000000 ) ) ;
#140 = DIRECTION ( 'NONE',  ( -1.000000000000000000, -8.673617379884035500E-017, 0.0000000000000000000 ) ) ;
#141 = PLANE ( 'NONE',  #8 ) ;
#142 = CARTESIAN_POINT ( 'NONE',  ( 7.500000000000000000, 2.500000000000000000, 1000.000000000000000 ) ) ;
#143 = DIRECTION ( 'NONE',  ( -1.000000000000000000, 0.0000000000000000000, 0.0000000000000000000 ) ) ;
#144 = DIRECTION ( 'NONE',  ( 0.0000000000000000000, 0.0000000000000000000, 1.000000000000000000 ) ) ;
#145 = DIRECTION ( 'NONE',  ( -0.0000000000000000000, -0.0000000000000000000, -1.000000000000000000 ) ) ;
#146 = LINE ( 'NONE', #148, #17 ) ;
#147 = VERTEX_POINT ( 'NONE', #188 ) ;
#148 = CARTESIAN_POINT ( 'NONE',  ( -7.500000000000000000, -2.500000000000001300, -1000.000000000000000 ) ) ;
#149 = LINE ( 'NONE', #170, #24 ) ;
#150 = ORIENTED_EDGE ( 'NONE', *, *, #50, .F. ) ;
#151 = DIRECTION ( 'NONE',  ( -1.000000000000000000, 8.673617379884035500E-017, -0.0000000000000000000 ) ) ;
#152 = DIRECTION ( 'NONE',  ( 1.000000000000000000, 8.673617379884035500E-017, 0.0000000000000000000 ) ) ;
#153 = LINE ( 'NONE', #154, #2 ) ;
#154 = CARTESIAN_POINT ( 'NONE',  ( -7.500000000000000000, 2.500000000000001300, -1000.000000000000000 ) ) ;
#155 = VERTEX_POINT ( 'NONE', #189 ) ;
#156 = PLANE ( 'NONE',  #23 ) ;
#157 = DIRECTION ( 'NONE',  ( 1.000000000000000000, 0.0000000000000000000, 0.0000000000000000000 ) ) ;
#158 = DIRECTION ( 'NONE',  ( 0.0000000000000000000, -1.000000000000000000, 0.0000000000000000000 ) ) ;
#159 = PLANE ( 'NONE',  #45 ) ;
#160 = CARTESIAN_POINT ( 'NONE',  ( -7.500000000000000000, 2.500000000000001300, -1000.000000000000000 ) ) ;
#161 = LINE ( 'NONE', #160, #44 ) ;
#162 = CARTESIAN_POINT ( 'NONE',  ( 0.0000000000000000000, 0.0000000000000000000, -1000.000000000000000 ) ) ;
#163 = LINE ( 'NONE', #165, #32 ) ;
#164 = LINE ( 'NONE', #166, #27 ) ;
#165 = CARTESIAN_POINT ( 'NONE',  ( 7.500000000000000000, 2.500000000000000000, 1000.000000000000000 ) ) ;
#166 = CARTESIAN_POINT ( 'NONE',  ( -7.500000000000000000, -2.500000000000001300, 1000.000000000000000 ) ) ;
#167 = DIRECTION ( 'NONE',  ( 1.000000000000000000, 8.673617379884035500E-017, 0.0000000000000000000 ) ) ;
#168 = DIRECTION ( 'NONE',  ( -0.0000000000000000000, 0.0000000000000000000, 1.000000000000000000 ) ) ;
#169 = DIRECTION ( 'NONE',  ( -0.0000000000000000000, -0.0000000000000000000, -1.000000000000000000 ) ) ;
#170 = CARTESIAN_POINT ( 'NONE',  ( -7.500000000000000000, -2.500000000000001300, 1000.000000000000000 ) ) ;
#171 = CARTESIAN_POINT ( 'NONE',  ( -7.500000000000000000, 2.500000000000001300, 1000.000000000000000 ) ) ;
#172 = DIRECTION ( 'NONE',  ( 1.000000000000000000, 0.0000000000000000000, -0.0000000000000000000 ) ) ;
#173 = DIRECTION ( 'NONE',  ( -0.0000000000000000000, 0.0000000000000000000, -1.000000000000000000 ) ) ;
#174 = PLANE ( 'NONE',  #36 ) ;
#175 = CARTESIAN_POINT ( 'NONE',  ( 0.0000000000000000000, 0.0000000000000000000, 1000.000000000000000 ) ) ;
#176 = DIRECTION ( 'NONE',  ( -0.0000000000000000000, 0.0000000000000000000, 1.000000000000000000 ) ) ;
#177 = DIRECTION ( 'NONE',  ( 1.000000000000000000, 0.0000000000000000000, 0.0000000000000000000 ) ) ;
#178 = PLANE ( 'NONE',  #14 ) ;
#179 = CARTESIAN_POINT ( 'NONE',  ( -7.500000000000000000, 2.500000000000001300, 1000.000000000000000 ) ) ;
#180 = DIRECTION ( 'NONE',  ( -8.673617379884035500E-017, -1.000000000000000000, 0.0000000000000000000 ) ) ;
#181 = DIRECTION ( 'NONE',  ( 1.000000000000000000, -8.673617379884035500E-017, 0.0000000000000000000 ) ) ;
#182 = CARTESIAN_POINT ( 'NONE',  ( 7.500000000000000000, 2.500000000000000000, 1000.000000000000000 ) ) ;
#183 = CARTESIAN_POINT ( 'NONE',  ( 7.500000000000000000, 2.500000000000000000, -1000.000000000000000 ) ) ;
#184 = CARTESIAN_POINT ( 'NONE',  ( 7.500000000000000000, -2.500000000000000000, 1000.000000000000000 ) ) ;
#185 = CARTESIAN_POINT ( 'NONE',  ( 7.500000000000000000, -2.500000000000000000, -1000.000000000000000 ) ) ;
#186 = CARTESIAN_POINT ( 'NONE',  ( -7.500000000000000000, 2.500000000000001300, 1000.000000000000000 ) ) ;
#187 = CARTESIAN_POINT ( 'NONE',  ( -7.500000000000000000, -2.500000000000001300, -1000.000000000000000 ) ) ;
#188 = CARTESIAN_POINT ( 'NONE',  ( -7.500000000000000000, 2.500000000000001300, -1000.000000000000000 ) ) ;
#189 = CARTESIAN_POINT ( 'NONE',  ( -7.500000000000000000, -2.500000000000001300, 1000.000000000000000 ) ) ;
#190 =( LENGTH_UNIT ( ) NAMED_UNIT ( * ) SI_UNIT ( .MILLI., .METRE. ) );
#191 =( NAMED_UNIT ( * ) PLANE_ANGLE_UNIT ( ) SI_UNIT ( $, .RADIAN. ) );
#192 =( NAMED_UNIT ( * ) SI_UNIT ( $, .STERADIAN. ) SOLID_ANGLE_UNIT ( ) );
#193 = APPLICATION_PROTOCOL_DEFINITION ( 'international standard', 'config_control_design', 1994, #236 ) ;
#194 = CARTESIAN_POINT ( 'NONE',  ( 0.0000000000000000000, 0.0000000000000000000, 0.0000000000000000000 ) ) ;
#195 = DIRECTION ( 'NONE',  ( 0.0000000000000000000, 0.0000000000000000000, 1.000000000000000000 ) ) ;
#196 = DIRECTION ( 'NONE',  ( 1.000000000000000000, 0.0000000000000000000, 0.0000000000000000000 ) ) ;
#197 = SHAPE_DEFINITION_REPRESENTATION ( #232, #234 ) ;
#198 = MECHANICAL_CONTEXT ( 'NONE', #236, 'mechanical' ) ;
#199 = PERSON_AND_ORGANIZATION ( #233, #18 ) ;
#200 = PERSON_AND_ORGANIZATION_ROLE ( 'design_owner' ) ;
#201 = APPLICATION_PROTOCOL_DEFINITION ( 'international standard', 'config_control_design', 1994, #237 ) ;
#202 = PERSON_AND_ORGANIZATION ( #233, #18 ) ;
#203 = APPROVAL_STATUS ( 'not_yet_approved' ) ;
#204 = APPROVAL_ROLE ( '' ) ;
#205 = DATE_AND_TIME ( #35, #83 ) ;
#206 = APPROVAL_DATE_TIME ( #205, #61 ) ;
#207 = PERSON_AND_ORGANIZATION ( #233, #18 ) ;
#208 = PERSON_AND_ORGANIZATION_ROLE ( 'creator' ) ;
#209 = DATE_AND_TIME ( #5, #74 ) ;
#210 = DATE_TIME_ROLE ( 'creation_date' ) ;
#211 = PERSON_AND_ORGANIZATION ( #233, #18 ) ;
#212 = APPROVAL_STATUS ( 'not_yet_approved' ) ;
#213 = APPROVAL_ROLE ( '' ) ;
#214 = DATE_AND_TIME ( #37, #66 ) ;
#215 = APPROVAL_DATE_TIME ( #214, #75 ) ;
#216 = PERSON_AND_ORGANIZATION ( #233, #18 ) ;
#217 = PERSON_AND_ORGANIZATION_ROLE ( 'creator' ) ;
#218 = PERSON_AND_ORGANIZATION ( #233, #18 ) ;
#219 = PERSON_AND_ORGANIZATION_ROLE ( 'design_supplier' ) ;
#220 = SECURITY_CLASSIFICATION_LEVEL ( 'unclassified' ) ;
#221 = PERSON_AND_ORGANIZATION ( #233, #18 ) ;
#222 = PERSON_AND_ORGANIZATION_ROLE ( 'classification_officer' ) ;
#223 = DATE_AND_TIME ( #16, #68 ) ;
#224 = DATE_TIME_ROLE ( 'classification_date' ) ;
#225 = PERSON_AND_ORGANIZATION ( #233, #18 ) ;
#226 = APPROVAL_STATUS ( 'not_yet_approved' ) ;
#227 = APPROVAL_ROLE ( '' ) ;
#228 = DATE_AND_TIME ( #12, #71 ) ;
#229 = APPROVAL_DATE_TIME ( #228, #69 ) ;
#230 = MANIFOLD_SOLID_BREP ( 'ÎÞ½ - µoµ1', #3 ) ;
#231 = DESIGN_CONTEXT ( 'detailed design', #237, 'design' ) ;
#232 = PRODUCT_DEFINITION_SHAPE ( 'NONE', 'NONE',  #80 ) ;
#233 = PERSON ( 'UNSPECIFIED', 'UNSPECIFIED', 'UNSPECIFIED', ('UNSPECIFIED'), ('UNSPECIFIED'), ('UNSPECIFIED') ) ;
#234 = ADVANCED_BREP_SHAPE_REPRESENTATION ( 'ª®3D', ( #230, #33 ), #47 ) ;
#235 = UNCERTAINTY_MEASURE_WITH_UNIT (LENGTH_MEASURE( 1.000000000000000100E-005 ), #190, 'distance_accuracy_value', 'NONE');
#236 = APPLICATION_CONTEXT ( 'configuration controlled 3d designs of mechanical parts and assemblies' ) ;
#237 = APPLICATION_CONTEXT ( 'configuration controlled 3d designs of mechanical parts and assemblies' ) ;
ENDSEC;
END-ISO-10303-21;
