ISO-10303-21;
HEADER;
FILE_DESCRIPTION (( 'STEP AP203' ),
    '1' );
FILE_NAME ('ª®3D.STEP',
    '2013-05-09T05:40:08',
    ( '11sw' ),
    ( '^LQ»¢®ïÐ' ),
    'SwSTEP 2.0',
    'SolidWorks 2012',
    '' );
FILE_SCHEMA (( 'CONFIG_CONTROL_DESIGN' ));
ENDSEC;

DATA;
#1 = VECTOR ( 'NONE', #89, 1000.000000000000000 ) ;
#2 = VECTOR ( 'NONE', #99, 1000.000000000000000 ) ;
#3 = VECTOR ( 'NONE', #93, 1000.000000000000000 ) ;
#4 = VECTOR ( 'NONE', #102, 1000.000000000000000 ) ;
#5 = AXIS2_PLACEMENT_3D ( 'NONE', #118, #119, #120 ) ;
#6 = VECTOR ( 'NONE', #105, 1000.000000000000000 ) ;
#7 = FACE_OUTER_BOUND ( 'NONE', #84, .T. ) ;
#8 = VECTOR ( 'NONE', #96, 1000.000000000000000 ) ;
#9 = AXIS2_PLACEMENT_3D ( 'NONE', #122, #126, #127 ) ;
#10 = CLOSED_SHELL ( 'NONE', ( #38, #39, #43, #37, #46, #45 ) ) ;
#11 = APPLICATION_CONTEXT ( 'configuration controlled 3d designs of mechanical parts and assemblies' ) ;
#12 = APPLICATION_CONTEXT ( 'configuration controlled 3d designs of mechanical parts and assemblies' ) ;
#13 =( GEOMETRIC_REPRESENTATION_CONTEXT ( 3 ) GLOBAL_UNCERTAINTY_ASSIGNED_CONTEXT ( ( #200 ) ) GLOBAL_UNIT_ASSIGNED_CONTEXT ( ( #156, #157, #158 ) ) REPRESENTATION_CONTEXT ( 'NONE', 'WORKASPACE' ) );
#14 = PRODUCT ( 'ª®3D', 'ª®3D', '', ( #164 ) ) ;
#15 = APPROVAL ( #169, 'UNSPECIFIED' ) ;
#16 = EDGE_CURVE ( 'NONE', #54, #50, #87, .T. ) ;
#17 = EDGE_CURVE ( 'NONE', #50, #53, #91, .T. ) ;
#18 = CC_DESIGN_DATE_AND_TIME_ASSIGNMENT ( #189, #190, ( #230 ) ) ;
#19 = APPROVAL ( #192, 'UNSPECIFIED' ) ;
#20 = EDGE_CURVE ( 'NONE', #55, #124, #94, .T. ) ;
#21 = EDGE_CURVE ( 'NONE', #52, #53, #97, .T. ) ;
#22 = EDGE_CURVE ( 'NONE', #54, #52, #100, .T. ) ;
#23 = PRODUCT_RELATED_PRODUCT_CATEGORY ( 'detail', '', ( #14 ) ) ;
#24 = LOCAL_TIME ( 14, 40, 8.000000000000000000, #234 ) ;
#25 = LOCAL_TIME ( 14, 40, 8.000000000000000000, #227 ) ;
#26 = APPROVAL ( #178, 'UNSPECIFIED' ) ;
#27 = CC_DESIGN_PERSON_AND_ORGANIZATION_ASSIGNMENT ( #173, #174, ( #44 ) ) ;
#28 = LOCAL_TIME ( 14, 40, 8.000000000000000000, #223 ) ;
#29 = CC_DESIGN_PERSON_AND_ORGANIZATION_ASSIGNMENT ( #187, #188, ( #230 ) ) ;
#30 = LOCAL_TIME ( 14, 40, 8.000000000000000000, #231 ) ;
#31 = EDGE_CURVE ( 'NONE', #51, #52, #103, .T. ) ;
#32 = EDGE_CURVE ( 'NONE', #56, #54, #106, .T. ) ;
#33 = CC_DESIGN_DATE_AND_TIME_ASSIGNMENT ( #175, #176, ( #44 ) ) ;
#34 = EDGE_CURVE ( 'NONE', #56, #51, #109, .T. ) ;
#35 = EDGE_CURVE ( 'NONE', #53, #124, #112, .T. ) ;
#36 = EDGE_CURVE ( 'NONE', #124, #51, #115, .T. ) ;
#37 = ADVANCED_FACE ( 'NONE', ( #7 ), #90, .F. ) ;
#38 = ADVANCED_FACE ( 'NONE', ( #207 ), #121, .F. ) ;
#39 = ADVANCED_FACE ( 'NONE', ( #205 ), #134, .F. ) ;
#40 = EDGE_CURVE ( 'NONE', #50, #55, #137, .T. ) ;
#41 = EDGE_CURVE ( 'NONE', #55, #56, #129, .T. ) ;
#42 = LOCAL_TIME ( 14, 40, 8.000000000000000000, #220 ) ;
#43 = ADVANCED_FACE ( 'NONE', ( #208 ), #133, .F. ) ;
#44 = PRODUCT_DEFINITION ( 'UNKNOWN', '', #225, #198 ) ;
#45 = ADVANCED_FACE ( 'NONE', ( #215 ), #141, .F. ) ;
#46 = ADVANCED_FACE ( 'NONE', ( #213 ), #144, .T. ) ;
#47 = CC_DESIGN_PERSON_AND_ORGANIZATION_ASSIGNMENT ( #165, #166, ( #14 ) ) ;
#48 = CC_DESIGN_PERSON_AND_ORGANIZATION_ASSIGNMENT ( #182, #183, ( #225 ) ) ;
#49 = CC_DESIGN_PERSON_AND_ORGANIZATION_ASSIGNMENT ( #184, #185, ( #225 ) ) ;
#50 = VERTEX_POINT ( 'NONE', #148 ) ;
#51 = VERTEX_POINT ( 'NONE', #149 ) ;
#52 = VERTEX_POINT ( 'NONE', #150 ) ;
#53 = VERTEX_POINT ( 'NONE', #151 ) ;
#54 = VERTEX_POINT ( 'NONE', #152 ) ;
#55 = VERTEX_POINT ( 'NONE', #153 ) ;
#56 = VERTEX_POINT ( 'NONE', #154 ) ;
#57 = ORIENTED_EDGE ( 'NONE', *, *, #21, .T. ) ;
#58 = ORIENTED_EDGE ( 'NONE', *, *, #35, .T. ) ;
#59 = ORIENTED_EDGE ( 'NONE', *, *, #22, .T. ) ;
#60 = ORIENTED_EDGE ( 'NONE', *, *, #17, .F. ) ;
#61 = ORIENTED_EDGE ( 'NONE', *, *, #16, .F. ) ;
#62 = ORIENTED_EDGE ( 'NONE', *, *, #31, .T. ) ;
#63 = ORIENTED_EDGE ( 'NONE', *, *, #32, .F. ) ;
#64 = ORIENTED_EDGE ( 'NONE', *, *, #22, .F. ) ;
#65 = ORIENTED_EDGE ( 'NONE', *, *, #34, .T. ) ;
#66 = ORIENTED_EDGE ( 'NONE', *, *, #36, .F. ) ;
#67 = ORIENTED_EDGE ( 'NONE', *, *, #35, .F. ) ;
#68 = ORIENTED_EDGE ( 'NONE', *, *, #40, .T. ) ;
#69 = ORIENTED_EDGE ( 'NONE', *, *, #32, .T. ) ;
#70 = ORIENTED_EDGE ( 'NONE', *, *, #41, .F. ) ;
#71 = ORIENTED_EDGE ( 'NONE', *, *, #40, .F. ) ;
#72 = ORIENTED_EDGE ( 'NONE', *, *, #20, .T. ) ;
#73 = ORIENTED_EDGE ( 'NONE', *, *, #31, .F. ) ;
#74 = ORIENTED_EDGE ( 'NONE', *, *, #20, .F. ) ;
#75 = ORIENTED_EDGE ( 'NONE', *, *, #34, .F. ) ;
#76 = ORIENTED_EDGE ( 'NONE', *, *, #41, .T. ) ;
#77 = ORIENTED_EDGE ( 'NONE', *, *, #17, .T. ) ;
#78 = ORIENTED_EDGE ( 'NONE', *, *, #16, .T. ) ;
#79 = ORIENTED_EDGE ( 'NONE', *, *, #21, .F. ) ;
#80 = ORIENTED_EDGE ( 'NONE', *, *, #36, .T. ) ;
#81 = EDGE_LOOP ( 'NONE', ( #73, #66, #67, #79 ) ) ;
#82 = EDGE_LOOP ( 'NONE', ( #58, #74, #71, #77 ) ) ;
#83 = EDGE_LOOP ( 'NONE', ( #57, #60, #61, #59 ) ) ;
#84 = EDGE_LOOP ( 'NONE', ( #80, #75, #70, #72 ) ) ;
#85 = EDGE_LOOP ( 'NONE', ( #69, #78, #68, #76 ) ) ;
#86 = EDGE_LOOP ( 'NONE', ( #62, #64, #63, #65 ) ) ;
#87 = LINE ( 'NONE', #88, #1 ) ;
#88 = CARTESIAN_POINT ( 'NONE',  ( -5.000000000000000000, -2.500000000000000900, 1000.000000000000000 ) ) ;
#89 = DIRECTION ( 'NONE',  ( 1.000000000000000000, 4.336808689942017100E-017, 0.0000000000000000000 ) ) ;
#90 = PLANE ( 'NONE',  #5 ) ;
#91 = LINE ( 'NONE', #92, #3 ) ;
#92 = CARTESIAN_POINT ( 'NONE',  ( 5.000000000000000900, -2.500000000000000400, 1000.000000000000000 ) ) ;
#93 = DIRECTION ( 'NONE',  ( -0.0000000000000000000, -0.0000000000000000000, -1.000000000000000000 ) ) ;
#94 = LINE ( 'NONE', #95, #8 ) ;
#95 = CARTESIAN_POINT ( 'NONE',  ( 5.000000000000000000, 2.500000000000000000, 1000.000000000000000 ) ) ;
#96 = DIRECTION ( 'NONE',  ( -0.0000000000000000000, -0.0000000000000000000, -1.000000000000000000 ) ) ;
#97 = LINE ( 'NONE', #98, #2 ) ;
#98 = CARTESIAN_POINT ( 'NONE',  ( -5.000000000000000000, -2.500000000000000900, -1000.000000000000000 ) ) ;
#99 = DIRECTION ( 'NONE',  ( 1.000000000000000000, 4.336808689942017100E-017, 0.0000000000000000000 ) ) ;
#100 = LINE ( 'NONE', #101, #4 ) ;
#101 = CARTESIAN_POINT ( 'NONE',  ( -5.000000000000000000, -2.500000000000000900, 1000.000000000000000 ) ) ;
#102 = DIRECTION ( 'NONE',  ( -0.0000000000000000000, -0.0000000000000000000, -1.000000000000000000 ) ) ;
#103 = LINE ( 'NONE', #104, #6 ) ;
#104 = CARTESIAN_POINT ( 'NONE',  ( -5.000000000000000000, 2.500000000000000900, -1000.000000000000000 ) ) ;
#105 = DIRECTION ( 'NONE',  ( 0.0000000000000000000, -1.000000000000000000, 0.0000000000000000000 ) ) ;
#106 = LINE ( 'NONE', #107, #202 ) ;
#107 = CARTESIAN_POINT ( 'NONE',  ( -5.000000000000000000, 2.500000000000000900, 1000.000000000000000 ) ) ;
#108 = DIRECTION ( 'NONE',  ( 0.0000000000000000000, -1.000000000000000000, 0.0000000000000000000 ) ) ;
#109 = LINE ( 'NONE', #110, #203 ) ;
#110 = CARTESIAN_POINT ( 'NONE',  ( -5.000000000000000000, 2.500000000000000900, 1000.000000000000000 ) ) ;
#111 = DIRECTION ( 'NONE',  ( -0.0000000000000000000, -0.0000000000000000000, -1.000000000000000000 ) ) ;
#112 = LINE ( 'NONE', #113, #204 ) ;
#113 = CARTESIAN_POINT ( 'NONE',  ( 5.000000000000000000, 2.500000000000000000, -1000.000000000000000 ) ) ;
#114 = DIRECTION ( 'NONE',  ( -1.734723475976806800E-016, 1.000000000000000000, -0.0000000000000000000 ) ) ;
#115 = LINE ( 'NONE', #116, #206 ) ;
#116 = CARTESIAN_POINT ( 'NONE',  ( -5.000000000000000000, 2.500000000000000900, -1000.000000000000000 ) ) ;
#117 = DIRECTION ( 'NONE',  ( -1.000000000000000000, 8.673617379884035500E-017, -0.0000000000000000000 ) ) ;
#118 = CARTESIAN_POINT ( 'NONE',  ( -5.000000000000000000, 2.500000000000000900, 1000.000000000000000 ) ) ;
#119 = DIRECTION ( 'NONE',  ( -8.673617379884035500E-017, -1.000000000000000000, 0.0000000000000000000 ) ) ;
#120 = DIRECTION ( 'NONE',  ( 1.000000000000000000, -8.673617379884035500E-017, 0.0000000000000000000 ) ) ;
#121 = PLANE ( 'NONE',  #9 ) ;
#122 = CARTESIAN_POINT ( 'NONE',  ( -5.000000000000000000, 2.500000000000000900, 1000.000000000000000 ) ) ;
#123 = DIRECTION ( 'NONE',  ( 1.734723475976806800E-016, -1.000000000000000000, 0.0000000000000000000 ) ) ;
#124 = VERTEX_POINT ( 'NONE', #155 ) ;
#125 = DIRECTION ( 'NONE',  ( -4.336808689942017100E-017, 1.000000000000000000, 0.0000000000000000000 ) ) ;
#126 = DIRECTION ( 'NONE',  ( 1.000000000000000000, 0.0000000000000000000, -0.0000000000000000000 ) ) ;
#127 = DIRECTION ( 'NONE',  ( -0.0000000000000000000, 0.0000000000000000000, -1.000000000000000000 ) ) ;
#128 = DIRECTION ( 'NONE',  ( -1.000000000000000000, -1.734723475976806800E-016, 0.0000000000000000000 ) ) ;
#129 = LINE ( 'NONE', #132, #214 ) ;
#130 = CARTESIAN_POINT ( 'NONE',  ( 5.000000000000000000, 2.500000000000000000, 1000.000000000000000 ) ) ;
#131 = DIRECTION ( 'NONE',  ( -1.734723475976806800E-016, 1.000000000000000000, -0.0000000000000000000 ) ) ;
#132 = CARTESIAN_POINT ( 'NONE',  ( -5.000000000000000000, 2.500000000000000900, 1000.000000000000000 ) ) ;
#133 = PLANE ( 'NONE',  #210 ) ;
#134 = PLANE ( 'NONE',  #209 ) ;
#135 = DIRECTION ( 'NONE',  ( -1.000000000000000000, -4.336808689942017100E-017, 0.0000000000000000000 ) ) ;
#136 = CARTESIAN_POINT ( 'NONE',  ( -5.000000000000000000, -2.500000000000000900, 1000.000000000000000 ) ) ;
#137 = LINE ( 'NONE', #138, #212 ) ;
#138 = CARTESIAN_POINT ( 'NONE',  ( 5.000000000000000000, 2.500000000000000000, 1000.000000000000000 ) ) ;
#139 = DIRECTION ( 'NONE',  ( -1.000000000000000000, 8.673617379884035500E-017, -0.0000000000000000000 ) ) ;
#140 = CARTESIAN_POINT ( 'NONE',  ( 0.0000000000000000000, 0.0000000000000000000, -1000.000000000000000 ) ) ;
#141 = PLANE ( 'NONE',  #211 ) ;
#142 = DIRECTION ( 'NONE',  ( -0.0000000000000000000, 0.0000000000000000000, 1.000000000000000000 ) ) ;
#143 = DIRECTION ( 'NONE',  ( 1.000000000000000000, 0.0000000000000000000, 0.0000000000000000000 ) ) ;
#144 = PLANE ( 'NONE',  #216 ) ;
#145 = CARTESIAN_POINT ( 'NONE',  ( 0.0000000000000000000, 0.0000000000000000000, 1000.000000000000000 ) ) ;
#146 = DIRECTION ( 'NONE',  ( -0.0000000000000000000, 0.0000000000000000000, 1.000000000000000000 ) ) ;
#147 = DIRECTION ( 'NONE',  ( 1.000000000000000000, 0.0000000000000000000, 0.0000000000000000000 ) ) ;
#148 = CARTESIAN_POINT ( 'NONE',  ( 5.000000000000000900, -2.500000000000000400, 1000.000000000000000 ) ) ;
#149 = CARTESIAN_POINT ( 'NONE',  ( -5.000000000000000000, 2.500000000000000900, -1000.000000000000000 ) ) ;
#150 = CARTESIAN_POINT ( 'NONE',  ( -5.000000000000000000, -2.500000000000000900, -1000.000000000000000 ) ) ;
#151 = CARTESIAN_POINT ( 'NONE',  ( 5.000000000000000900, -2.500000000000000400, -1000.000000000000000 ) ) ;
#152 = CARTESIAN_POINT ( 'NONE',  ( -5.000000000000000000, -2.500000000000000900, 1000.000000000000000 ) ) ;
#153 = CARTESIAN_POINT ( 'NONE',  ( 5.000000000000000000, 2.500000000000000000, 1000.000000000000000 ) ) ;
#154 = CARTESIAN_POINT ( 'NONE',  ( -5.000000000000000000, 2.500000000000000900, 1000.000000000000000 ) ) ;
#155 = CARTESIAN_POINT ( 'NONE',  ( 5.000000000000000000, 2.500000000000000000, -1000.000000000000000 ) ) ;
#156 =( LENGTH_UNIT ( ) NAMED_UNIT ( * ) SI_UNIT ( .MILLI., .METRE. ) );
#157 =( NAMED_UNIT ( * ) PLANE_ANGLE_UNIT ( ) SI_UNIT ( $, .RADIAN. ) );
#158 =( NAMED_UNIT ( * ) SI_UNIT ( $, .STERADIAN. ) SOLID_ANGLE_UNIT ( ) );
#159 = APPLICATION_PROTOCOL_DEFINITION ( 'international standard', 'config_control_design', 1994, #11 ) ;
#160 = CARTESIAN_POINT ( 'NONE',  ( 0.0000000000000000000, 0.0000000000000000000, 0.0000000000000000000 ) ) ;
#161 = DIRECTION ( 'NONE',  ( 0.0000000000000000000, 0.0000000000000000000, 1.000000000000000000 ) ) ;
#162 = DIRECTION ( 'NONE',  ( 1.000000000000000000, 0.0000000000000000000, 0.0000000000000000000 ) ) ;
#163 = SHAPE_DEFINITION_REPRESENTATION ( #197, #201 ) ;
#164 = MECHANICAL_CONTEXT ( 'NONE', #11, 'mechanical' ) ;
#165 = PERSON_AND_ORGANIZATION ( #199, #218 ) ;
#166 = PERSON_AND_ORGANIZATION_ROLE ( 'design_owner' ) ;
#167 = APPLICATION_PROTOCOL_DEFINITION ( 'international standard', 'config_control_design', 1994, #12 ) ;
#168 = PERSON_AND_ORGANIZATION ( #199, #218 ) ;
#169 = APPROVAL_STATUS ( 'not_yet_approved' ) ;
#170 = APPROVAL_ROLE ( '' ) ;
#171 = DATE_AND_TIME ( #221, #42 ) ;
#172 = APPROVAL_DATE_TIME ( #171, #15 ) ;
#173 = PERSON_AND_ORGANIZATION ( #199, #218 ) ;
#174 = PERSON_AND_ORGANIZATION_ROLE ( 'creator' ) ;
#175 = DATE_AND_TIME ( #224, #28 ) ;
#176 = DATE_TIME_ROLE ( 'creation_date' ) ;
#177 = PERSON_AND_ORGANIZATION ( #199, #218 ) ;
#178 = APPROVAL_STATUS ( 'not_yet_approved' ) ;
#179 = APPROVAL_ROLE ( '' ) ;
#180 = DATE_AND_TIME ( #228, #25 ) ;
#181 = APPROVAL_DATE_TIME ( #180, #26 ) ;
#182 = PERSON_AND_ORGANIZATION ( #199, #218 ) ;
#183 = PERSON_AND_ORGANIZATION_ROLE ( 'creator' ) ;
#184 = PERSON_AND_ORGANIZATION ( #199, #218 ) ;
#185 = PERSON_AND_ORGANIZATION_ROLE ( 'design_supplier' ) ;
#186 = SECURITY_CLASSIFICATION_LEVEL ( 'unclassified' ) ;
#187 = PERSON_AND_ORGANIZATION ( #199, #218 ) ;
#188 = PERSON_AND_ORGANIZATION_ROLE ( 'classification_officer' ) ;
#189 = DATE_AND_TIME ( #232, #30 ) ;
#190 = DATE_TIME_ROLE ( 'classification_date' ) ;
#191 = PERSON_AND_ORGANIZATION ( #199, #218 ) ;
#192 = APPROVAL_STATUS ( 'not_yet_approved' ) ;
#193 = APPROVAL_ROLE ( '' ) ;
#194 = DATE_AND_TIME ( #235, #24 ) ;
#195 = APPROVAL_DATE_TIME ( #194, #19 ) ;
#196 = MANIFOLD_SOLID_BREP ( 'ÎÞ½ - µoµ1', #10 ) ;
#197 = PRODUCT_DEFINITION_SHAPE ( 'NONE', 'NONE',  #44 ) ;
#198 = DESIGN_CONTEXT ( 'detailed design', #12, 'design' ) ;
#199 = PERSON ( 'UNSPECIFIED', 'UNSPECIFIED', 'UNSPECIFIED', ('UNSPECIFIED'), ('UNSPECIFIED'), ('UNSPECIFIED') ) ;
#200 = UNCERTAINTY_MEASURE_WITH_UNIT (LENGTH_MEASURE( 1.000000000000000100E-005 ), #156, 'distance_accuracy_value', 'NONE');
#201 = ADVANCED_BREP_SHAPE_REPRESENTATION ( 'ª®3D', ( #196, #217 ), #13 ) ;
#202 = VECTOR ( 'NONE', #108, 1000.000000000000000 ) ;
#203 = VECTOR ( 'NONE', #111, 1000.000000000000000 ) ;
#204 = VECTOR ( 'NONE', #114, 1000.000000000000000 ) ;
#205 = FACE_OUTER_BOUND ( 'NONE', #83, .T. ) ;
#206 = VECTOR ( 'NONE', #117, 1000.000000000000000 ) ;
#207 = FACE_OUTER_BOUND ( 'NONE', #86, .T. ) ;
#208 = FACE_OUTER_BOUND ( 'NONE', #82, .T. ) ;
#209 = AXIS2_PLACEMENT_3D ( 'NONE', #136, #125, #135 ) ;
#210 = AXIS2_PLACEMENT_3D ( 'NONE', #130, #128, #123 ) ;
#211 = AXIS2_PLACEMENT_3D ( 'NONE', #140, #142, #143 ) ;
#212 = VECTOR ( 'NONE', #131, 1000.000000000000000 ) ;
#213 = FACE_OUTER_BOUND ( 'NONE', #85, .T. ) ;
#214 = VECTOR ( 'NONE', #139, 1000.000000000000000 ) ;
#215 = FACE_OUTER_BOUND ( 'NONE', #81, .T. ) ;
#216 = AXIS2_PLACEMENT_3D ( 'NONE', #145, #146, #147 ) ;
#217 = AXIS2_PLACEMENT_3D ( 'NONE', #160, #161, #162 ) ;
#218 = ORGANIZATION ( 'UNSPECIFIED', 'UNSPECIFIED', '' ) ;
#219 = APPROVAL_PERSON_ORGANIZATION ( #168, #15, #170 ) ;
#220 = COORDINATED_UNIVERSAL_TIME_OFFSET ( 9, 0, .AHEAD. ) ;
#221 = CALENDAR_DATE ( 2013, 9, 5 ) ;
#222 = CC_DESIGN_APPROVAL ( #15, ( #44 ) ) ;
#223 = COORDINATED_UNIVERSAL_TIME_OFFSET ( 9, 0, .AHEAD. ) ;
#224 = CALENDAR_DATE ( 2013, 9, 5 ) ;
#225 = PRODUCT_DEFINITION_FORMATION_WITH_SPECIFIED_SOURCE ( 'ANY', '', #14, .NOT_KNOWN. ) ;
#226 = APPROVAL_PERSON_ORGANIZATION ( #177, #26, #179 ) ;
#227 = COORDINATED_UNIVERSAL_TIME_OFFSET ( 9, 0, .AHEAD. ) ;
#228 = CALENDAR_DATE ( 2013, 9, 5 ) ;
#229 = CC_DESIGN_APPROVAL ( #26, ( #225 ) ) ;
#230 = SECURITY_CLASSIFICATION ( '', '', #186 ) ;
#231 = COORDINATED_UNIVERSAL_TIME_OFFSET ( 9, 0, .AHEAD. ) ;
#232 = CALENDAR_DATE ( 2013, 9, 5 ) ;
#233 = APPROVAL_PERSON_ORGANIZATION ( #191, #19, #193 ) ;
#234 = COORDINATED_UNIVERSAL_TIME_OFFSET ( 9, 0, .AHEAD. ) ;
#235 = CALENDAR_DATE ( 2013, 9, 5 ) ;
#236 = CC_DESIGN_APPROVAL ( #19, ( #230 ) ) ;
#237 = CC_DESIGN_SECURITY_CLASSIFICATION ( #230, ( #225 ) ) ;
ENDSEC;
END-ISO-10303-21;
