ISO-10303-21;
HEADER;
FILE_DESCRIPTION (( 'STEP AP203' ),
    '1' );
FILE_NAME ('ª®3D.STEP',
    '2013-05-09T05:39:06',
    ( '11sw' ),
    ( '^LQ»¢®ïÐ' ),
    'SwSTEP 2.0',
    'SolidWorks 2012',
    '' );
FILE_SCHEMA (( 'CONFIG_CONTROL_DESIGN' ));
ENDSEC;

DATA;
#1 = VECTOR ( 'NONE', #123, 1000.000000000000000 ) ;
#2 = VECTOR ( 'NONE', #129, 1000.000000000000000 ) ;
#3 = AXIS2_PLACEMENT_3D ( 'NONE', #152, #153, #154 ) ;
#4 = VECTOR ( 'NONE', #114, 1000.000000000000000 ) ;
#5 = VECTOR ( 'NONE', #148, 1000.000000000000000 ) ;
#6 = VECTOR ( 'NONE', #138, 1000.000000000000000 ) ;
#7 = FACE_OUTER_BOUND ( 'NONE', #97, .T. ) ;
#8 = AXIS2_PLACEMENT_3D ( 'NONE', #156, #157, #158 ) ;
#9 = VECTOR ( 'NONE', #120, 1000.000000000000000 ) ;
#10 = VECTOR ( 'NONE', #150, 1000.000000000000000 ) ;
#11 = AXIS2_PLACEMENT_3D ( 'NONE', #145, #147, #144 ) ;
#12 = AXIS2_PLACEMENT_3D ( 'NONE', #131, #132, #135 ) ;
#13 = VECTOR ( 'NONE', #143, 1000.000000000000000 ) ;
#14 = AXIS2_PLACEMENT_3D ( 'NONE', #124, #125, #126 ) ;
#15 = VECTOR ( 'NONE', #111, 1000.000000000000000 ) ;
#16 = VECTOR ( 'NONE', #117, 1000.000000000000000 ) ;
#17 = FACE_OUTER_BOUND ( 'NONE', #98, .T. ) ;
#18 = VECTOR ( 'NONE', #104, 1000.000000000000000 ) ;
#19 = FACE_OUTER_BOUND ( 'NONE', #100, .T. ) ;
#20 = FACE_OUTER_BOUND ( 'NONE', #99, .T. ) ;
#21 = VECTOR ( 'NONE', #108, 1000.000000000000000 ) ;
#22 = CLOSED_SHELL ( 'NONE', ( #63, #59, #48, #50, #44, #64 ) ) ;
#23 = APPLICATION_CONTEXT ( 'configuration controlled 3d designs of mechanical parts and assemblies' ) ;
#24 = APPLICATION_CONTEXT ( 'configuration controlled 3d designs of mechanical parts and assemblies' ) ;
#25 =( GEOMETRIC_REPRESENTATION_CONTEXT ( 3 ) GLOBAL_UNCERTAINTY_ASSIGNED_CONTEXT ( ( #26 ) ) GLOBAL_UNIT_ASSIGNED_CONTEXT ( ( #171, #172, #173 ) ) REPRESENTATION_CONTEXT ( 'NONE', 'WORKASPACE' ) );
#26 = UNCERTAINTY_MEASURE_WITH_UNIT (LENGTH_MEASURE( 1.000000000000000100E-005 ), #171, 'distance_accuracy_value', 'NONE');
#27 = ADVANCED_BREP_SHAPE_REPRESENTATION ( 'ª®3D', ( #211, #217 ), #25 ) ;
#28 = PERSON ( 'UNSPECIFIED', 'UNSPECIFIED', 'UNSPECIFIED', ('UNSPECIFIED'), ('UNSPECIFIED'), ('UNSPECIFIED') ) ;
#29 = PRODUCT ( 'ª®3D', 'ª®3D', '', ( #179 ) ) ;
#30 = CC_DESIGN_PERSON_AND_ORGANIZATION_ASSIGNMENT ( #188, #189, ( #62 ) ) ;
#31 = APPROVAL ( #184, 'UNSPECIFIED' ) ;
#32 = CC_DESIGN_DATE_AND_TIME_ASSIGNMENT ( #190, #191, ( #62 ) ) ;
#33 = PRODUCT_RELATED_PRODUCT_CATEGORY ( 'detail', '', ( #29 ) ) ;
#34 = EDGE_CURVE ( 'NONE', #134, #65, #102, .T. ) ;
#35 = EDGE_CURVE ( 'NONE', #67, #71, #106, .T. ) ;
#36 = EDGE_CURVE ( 'NONE', #70, #134, #109, .T. ) ;
#37 = EDGE_CURVE ( 'NONE', #69, #70, #112, .T. ) ;
#38 = EDGE_CURVE ( 'NONE', #66, #65, #115, .T. ) ;
#39 = APPROVAL ( #193, 'UNSPECIFIED' ) ;
#40 = EDGE_CURVE ( 'NONE', #68, #134, #118, .T. ) ;
#41 = EDGE_CURVE ( 'NONE', #69, #68, #121, .T. ) ;
#42 = CC_DESIGN_PERSON_AND_ORGANIZATION_ASSIGNMENT ( #199, #200, ( #225 ) ) ;
#43 = LOCAL_TIME ( 14, 39, 6.000000000000000000, #227 ) ;
#44 = ADVANCED_FACE ( 'NONE', ( #20 ), #105, .T. ) ;
#45 = LOCAL_TIME ( 14, 39, 6.000000000000000000, #223 ) ;
#46 = EDGE_CURVE ( 'NONE', #66, #67, #127, .T. ) ;
#47 = APPROVAL ( #207, 'UNSPECIFIED' ) ;
#48 = ADVANCED_FACE ( 'NONE', ( #7 ), #130, .F. ) ;
#49 = CC_DESIGN_PERSON_AND_ORGANIZATION_ASSIGNMENT ( #197, #198, ( #225 ) ) ;
#50 = ADVANCED_FACE ( 'NONE', ( #19 ), #136, .F. ) ;
#51 = EDGE_CURVE ( 'NONE', #67, #69, #146, .T. ) ;
#52 = EDGE_CURVE ( 'NONE', #70, #66, #137, .T. ) ;
#53 = EDGE_CURVE ( 'NONE', #65, #71, #141, .T. ) ;
#54 = CC_DESIGN_DATE_AND_TIME_ASSIGNMENT ( #204, #205, ( #230 ) ) ;
#55 = CC_DESIGN_PERSON_AND_ORGANIZATION_ASSIGNMENT ( #202, #203, ( #230 ) ) ;
#56 = LOCAL_TIME ( 14, 39, 6.000000000000000000, #234 ) ;
#57 = LOCAL_TIME ( 14, 39, 6.000000000000000000, #231 ) ;
#58 = EDGE_CURVE ( 'NONE', #71, #68, #133, .T. ) ;
#59 = ADVANCED_FACE ( 'NONE', ( #17 ), #142, .F. ) ;
#60 = LOCAL_TIME ( 14, 39, 6.000000000000000000, #220 ) ;
#61 = CC_DESIGN_PERSON_AND_ORGANIZATION_ASSIGNMENT ( #180, #181, ( #29 ) ) ;
#62 = PRODUCT_DEFINITION ( 'UNKNOWN', '', #225, #213 ) ;
#63 = ADVANCED_FACE ( 'NONE', ( #214 ), #155, .F. ) ;
#64 = ADVANCED_FACE ( 'NONE', ( #215 ), #159, .F. ) ;
#65 = VERTEX_POINT ( 'NONE', #163 ) ;
#66 = VERTEX_POINT ( 'NONE', #164 ) ;
#67 = VERTEX_POINT ( 'NONE', #165 ) ;
#68 = VERTEX_POINT ( 'NONE', #166 ) ;
#69 = VERTEX_POINT ( 'NONE', #167 ) ;
#70 = VERTEX_POINT ( 'NONE', #168 ) ;
#71 = VERTEX_POINT ( 'NONE', #169 ) ;
#72 = ORIENTED_EDGE ( 'NONE', *, *, #46, .F. ) ;
#73 = ORIENTED_EDGE ( 'NONE', *, *, #53, .T. ) ;
#74 = ORIENTED_EDGE ( 'NONE', *, *, #38, .T. ) ;
#75 = ORIENTED_EDGE ( 'NONE', *, *, #52, .F. ) ;
#76 = ORIENTED_EDGE ( 'NONE', *, *, #38, .F. ) ;
#77 = ORIENTED_EDGE ( 'NONE', *, *, #36, .T. ) ;
#78 = ORIENTED_EDGE ( 'NONE', *, *, #40, .T. ) ;
#79 = ORIENTED_EDGE ( 'NONE', *, *, #46, .T. ) ;
#80 = ORIENTED_EDGE ( 'NONE', *, *, #41, .F. ) ;
#81 = ORIENTED_EDGE ( 'NONE', *, *, #34, .T. ) ;
#82 = ORIENTED_EDGE ( 'NONE', *, *, #41, .T. ) ;
#83 = ORIENTED_EDGE ( 'NONE', *, *, #36, .F. ) ;
#84 = ORIENTED_EDGE ( 'NONE', *, *, #37, .F. ) ;
#85 = ORIENTED_EDGE ( 'NONE', *, *, #35, .T. ) ;
#86 = ORIENTED_EDGE ( 'NONE', *, *, #58, .T. ) ;
#87 = ORIENTED_EDGE ( 'NONE', *, *, #35, .F. ) ;
#88 = ORIENTED_EDGE ( 'NONE', *, *, #37, .T. ) ;
#89 = ORIENTED_EDGE ( 'NONE', *, *, #53, .F. ) ;
#90 = ORIENTED_EDGE ( 'NONE', *, *, #34, .F. ) ;
#91 = ORIENTED_EDGE ( 'NONE', *, *, #40, .F. ) ;
#92 = ORIENTED_EDGE ( 'NONE', *, *, #58, .F. ) ;
#93 = ORIENTED_EDGE ( 'NONE', *, *, #52, .T. ) ;
#94 = ORIENTED_EDGE ( 'NONE', *, *, #51, .F. ) ;
#95 = ORIENTED_EDGE ( 'NONE', *, *, #51, .T. ) ;
#96 = EDGE_LOOP ( 'NONE', ( #92, #89, #90, #91 ) ) ;
#97 = EDGE_LOOP ( 'NONE', ( #81, #76, #75, #77 ) ) ;
#98 = EDGE_LOOP ( 'NONE', ( #78, #83, #84, #82 ) ) ;
#99 = EDGE_LOOP ( 'NONE', ( #95, #88, #93, #79 ) ) ;
#100 = EDGE_LOOP ( 'NONE', ( #73, #87, #72, #74 ) ) ;
#101 = EDGE_LOOP ( 'NONE', ( #86, #80, #94, #85 ) ) ;
#102 = LINE ( 'NONE', #103, #18 ) ;
#103 = CARTESIAN_POINT ( 'NONE',  ( 2.500000000000000400, 1.500000000000000000, -1000.000000000000000 ) ) ;
#104 = DIRECTION ( 'NONE',  ( -0.0000000000000000000, 1.000000000000000000, -0.0000000000000000000 ) ) ;
#105 = PLANE ( 'NONE',  #14 ) ;
#106 = LINE ( 'NONE', #107, #21 ) ;
#107 = CARTESIAN_POINT ( 'NONE',  ( -2.500000000000000400, 1.500000000000000400, 1000.000000000000000 ) ) ;
#108 = DIRECTION ( 'NONE',  ( -0.0000000000000000000, -0.0000000000000000000, -1.000000000000000000 ) ) ;
#109 = LINE ( 'NONE', #110, #15 ) ;
#110 = CARTESIAN_POINT ( 'NONE',  ( 2.500000000000000400, -1.500000000000000000, 1000.000000000000000 ) ) ;
#111 = DIRECTION ( 'NONE',  ( -0.0000000000000000000, -0.0000000000000000000, -1.000000000000000000 ) ) ;
#112 = LINE ( 'NONE', #113, #4 ) ;
#113 = CARTESIAN_POINT ( 'NONE',  ( -2.500000000000000400, -1.500000000000000400, 1000.000000000000000 ) ) ;
#114 = DIRECTION ( 'NONE',  ( 1.000000000000000000, 8.673617379884034200E-017, 0.0000000000000000000 ) ) ;
#115 = LINE ( 'NONE', #116, #16 ) ;
#116 = CARTESIAN_POINT ( 'NONE',  ( 2.500000000000000400, 1.500000000000000000, 1000.000000000000000 ) ) ;
#117 = DIRECTION ( 'NONE',  ( -0.0000000000000000000, -0.0000000000000000000, -1.000000000000000000 ) ) ;
#118 = LINE ( 'NONE', #119, #9 ) ;
#119 = CARTESIAN_POINT ( 'NONE',  ( -2.500000000000000400, -1.500000000000000400, -1000.000000000000000 ) ) ;
#120 = DIRECTION ( 'NONE',  ( 1.000000000000000000, 8.673617379884034200E-017, 0.0000000000000000000 ) ) ;
#121 = LINE ( 'NONE', #122, #1 ) ;
#122 = CARTESIAN_POINT ( 'NONE',  ( -2.500000000000000400, -1.500000000000000400, 1000.000000000000000 ) ) ;
#123 = DIRECTION ( 'NONE',  ( -0.0000000000000000000, -0.0000000000000000000, -1.000000000000000000 ) ) ;
#124 = CARTESIAN_POINT ( 'NONE',  ( 0.0000000000000000000, 0.0000000000000000000, 1000.000000000000000 ) ) ;
#125 = DIRECTION ( 'NONE',  ( -0.0000000000000000000, 0.0000000000000000000, 1.000000000000000000 ) ) ;
#126 = DIRECTION ( 'NONE',  ( 1.000000000000000000, 0.0000000000000000000, 0.0000000000000000000 ) ) ;
#127 = LINE ( 'NONE', #128, #2 ) ;
#128 = CARTESIAN_POINT ( 'NONE',  ( -2.500000000000000400, 1.500000000000000400, 1000.000000000000000 ) ) ;
#129 = DIRECTION ( 'NONE',  ( -1.000000000000000000, 8.673617379884034200E-017, -0.0000000000000000000 ) ) ;
#130 = PLANE ( 'NONE',  #12 ) ;
#131 = CARTESIAN_POINT ( 'NONE',  ( 2.500000000000000400, 1.500000000000000000, 1000.000000000000000 ) ) ;
#132 = DIRECTION ( 'NONE',  ( -1.000000000000000000, 0.0000000000000000000, 0.0000000000000000000 ) ) ;
#133 = LINE ( 'NONE', #151, #10 ) ;
#134 = VERTEX_POINT ( 'NONE', #170 ) ;
#135 = DIRECTION ( 'NONE',  ( 0.0000000000000000000, 0.0000000000000000000, 1.000000000000000000 ) ) ;
#136 = PLANE ( 'NONE',  #11 ) ;
#137 = LINE ( 'NONE', #139, #5 ) ;
#138 = DIRECTION ( 'NONE',  ( 0.0000000000000000000, -1.000000000000000000, 0.0000000000000000000 ) ) ;
#139 = CARTESIAN_POINT ( 'NONE',  ( 2.500000000000000400, 1.500000000000000000, 1000.000000000000000 ) ) ;
#140 = CARTESIAN_POINT ( 'NONE',  ( -2.500000000000000400, 1.500000000000000400, -1000.000000000000000 ) ) ;
#141 = LINE ( 'NONE', #140, #13 ) ;
#142 = PLANE ( 'NONE',  #3 ) ;
#143 = DIRECTION ( 'NONE',  ( -1.000000000000000000, 8.673617379884034200E-017, -0.0000000000000000000 ) ) ;
#144 = DIRECTION ( 'NONE',  ( 1.000000000000000000, -8.673617379884034200E-017, 0.0000000000000000000 ) ) ;
#145 = CARTESIAN_POINT ( 'NONE',  ( -2.500000000000000400, 1.500000000000000400, 1000.000000000000000 ) ) ;
#146 = LINE ( 'NONE', #149, #6 ) ;
#147 = DIRECTION ( 'NONE',  ( -8.673617379884034200E-017, -1.000000000000000000, 0.0000000000000000000 ) ) ;
#148 = DIRECTION ( 'NONE',  ( -0.0000000000000000000, 1.000000000000000000, -0.0000000000000000000 ) ) ;
#149 = CARTESIAN_POINT ( 'NONE',  ( -2.500000000000000400, 1.500000000000000400, 1000.000000000000000 ) ) ;
#150 = DIRECTION ( 'NONE',  ( 0.0000000000000000000, -1.000000000000000000, 0.0000000000000000000 ) ) ;
#151 = CARTESIAN_POINT ( 'NONE',  ( -2.500000000000000400, 1.500000000000000400, -1000.000000000000000 ) ) ;
#152 = CARTESIAN_POINT ( 'NONE',  ( -2.500000000000000400, -1.500000000000000400, 1000.000000000000000 ) ) ;
#153 = DIRECTION ( 'NONE',  ( -8.673617379884034200E-017, 1.000000000000000000, 0.0000000000000000000 ) ) ;
#154 = DIRECTION ( 'NONE',  ( -1.000000000000000000, -8.673617379884034200E-017, 0.0000000000000000000 ) ) ;
#155 = PLANE ( 'NONE',  #8 ) ;
#156 = CARTESIAN_POINT ( 'NONE',  ( -2.500000000000000400, 1.500000000000000400, 1000.000000000000000 ) ) ;
#157 = DIRECTION ( 'NONE',  ( 1.000000000000000000, 0.0000000000000000000, -0.0000000000000000000 ) ) ;
#158 = DIRECTION ( 'NONE',  ( -0.0000000000000000000, 0.0000000000000000000, -1.000000000000000000 ) ) ;
#159 = PLANE ( 'NONE',  #216 ) ;
#160 = CARTESIAN_POINT ( 'NONE',  ( 0.0000000000000000000, 0.0000000000000000000, -1000.000000000000000 ) ) ;
#161 = DIRECTION ( 'NONE',  ( -0.0000000000000000000, 0.0000000000000000000, 1.000000000000000000 ) ) ;
#162 = DIRECTION ( 'NONE',  ( 1.000000000000000000, 0.0000000000000000000, 0.0000000000000000000 ) ) ;
#163 = CARTESIAN_POINT ( 'NONE',  ( 2.500000000000000400, 1.500000000000000000, -1000.000000000000000 ) ) ;
#164 = CARTESIAN_POINT ( 'NONE',  ( 2.500000000000000400, 1.500000000000000000, 1000.000000000000000 ) ) ;
#165 = CARTESIAN_POINT ( 'NONE',  ( -2.500000000000000400, 1.500000000000000400, 1000.000000000000000 ) ) ;
#166 = CARTESIAN_POINT ( 'NONE',  ( -2.500000000000000400, -1.500000000000000400, -1000.000000000000000 ) ) ;
#167 = CARTESIAN_POINT ( 'NONE',  ( -2.500000000000000400, -1.500000000000000400, 1000.000000000000000 ) ) ;
#168 = CARTESIAN_POINT ( 'NONE',  ( 2.500000000000000400, -1.500000000000000000, 1000.000000000000000 ) ) ;
#169 = CARTESIAN_POINT ( 'NONE',  ( -2.500000000000000400, 1.500000000000000400, -1000.000000000000000 ) ) ;
#170 = CARTESIAN_POINT ( 'NONE',  ( 2.500000000000000400, -1.500000000000000000, -1000.000000000000000 ) ) ;
#171 =( LENGTH_UNIT ( ) NAMED_UNIT ( * ) SI_UNIT ( .MILLI., .METRE. ) );
#172 =( NAMED_UNIT ( * ) PLANE_ANGLE_UNIT ( ) SI_UNIT ( $, .RADIAN. ) );
#173 =( NAMED_UNIT ( * ) SI_UNIT ( $, .STERADIAN. ) SOLID_ANGLE_UNIT ( ) );
#174 = APPLICATION_PROTOCOL_DEFINITION ( 'international standard', 'config_control_design', 1994, #24 ) ;
#175 = CARTESIAN_POINT ( 'NONE',  ( 0.0000000000000000000, 0.0000000000000000000, 0.0000000000000000000 ) ) ;
#176 = DIRECTION ( 'NONE',  ( 0.0000000000000000000, 0.0000000000000000000, 1.000000000000000000 ) ) ;
#177 = DIRECTION ( 'NONE',  ( 1.000000000000000000, 0.0000000000000000000, 0.0000000000000000000 ) ) ;
#178 = SHAPE_DEFINITION_REPRESENTATION ( #212, #27 ) ;
#179 = MECHANICAL_CONTEXT ( 'NONE', #24, 'mechanical' ) ;
#180 = PERSON_AND_ORGANIZATION ( #28, #218 ) ;
#181 = PERSON_AND_ORGANIZATION_ROLE ( 'design_owner' ) ;
#182 = APPLICATION_PROTOCOL_DEFINITION ( 'international standard', 'config_control_design', 1994, #23 ) ;
#183 = PERSON_AND_ORGANIZATION ( #28, #218 ) ;
#184 = APPROVAL_STATUS ( 'not_yet_approved' ) ;
#185 = APPROVAL_ROLE ( '' ) ;
#186 = DATE_AND_TIME ( #221, #60 ) ;
#187 = APPROVAL_DATE_TIME ( #186, #31 ) ;
#188 = PERSON_AND_ORGANIZATION ( #28, #218 ) ;
#189 = PERSON_AND_ORGANIZATION_ROLE ( 'creator' ) ;
#190 = DATE_AND_TIME ( #224, #45 ) ;
#191 = DATE_TIME_ROLE ( 'creation_date' ) ;
#192 = PERSON_AND_ORGANIZATION ( #28, #218 ) ;
#193 = APPROVAL_STATUS ( 'not_yet_approved' ) ;
#194 = APPROVAL_ROLE ( '' ) ;
#195 = DATE_AND_TIME ( #228, #43 ) ;
#196 = APPROVAL_DATE_TIME ( #195, #39 ) ;
#197 = PERSON_AND_ORGANIZATION ( #28, #218 ) ;
#198 = PERSON_AND_ORGANIZATION_ROLE ( 'creator' ) ;
#199 = PERSON_AND_ORGANIZATION ( #28, #218 ) ;
#200 = PERSON_AND_ORGANIZATION_ROLE ( 'design_supplier' ) ;
#201 = SECURITY_CLASSIFICATION_LEVEL ( 'unclassified' ) ;
#202 = PERSON_AND_ORGANIZATION ( #28, #218 ) ;
#203 = PERSON_AND_ORGANIZATION_ROLE ( 'classification_officer' ) ;
#204 = DATE_AND_TIME ( #232, #57 ) ;
#205 = DATE_TIME_ROLE ( 'classification_date' ) ;
#206 = PERSON_AND_ORGANIZATION ( #28, #218 ) ;
#207 = APPROVAL_STATUS ( 'not_yet_approved' ) ;
#208 = APPROVAL_ROLE ( '' ) ;
#209 = DATE_AND_TIME ( #235, #56 ) ;
#210 = APPROVAL_DATE_TIME ( #209, #47 ) ;
#211 = MANIFOLD_SOLID_BREP ( 'ÎÞ½ - µoµ1', #22 ) ;
#212 = PRODUCT_DEFINITION_SHAPE ( 'NONE', 'NONE',  #62 ) ;
#213 = DESIGN_CONTEXT ( 'detailed design', #23, 'design' ) ;
#214 = FACE_OUTER_BOUND ( 'NONE', #101, .T. ) ;
#215 = FACE_OUTER_BOUND ( 'NONE', #96, .T. ) ;
#216 = AXIS2_PLACEMENT_3D ( 'NONE', #160, #161, #162 ) ;
#217 = AXIS2_PLACEMENT_3D ( 'NONE', #175, #176, #177 ) ;
#218 = ORGANIZATION ( 'UNSPECIFIED', 'UNSPECIFIED', '' ) ;
#219 = APPROVAL_PERSON_ORGANIZATION ( #183, #31, #185 ) ;
#220 = COORDINATED_UNIVERSAL_TIME_OFFSET ( 9, 0, .AHEAD. ) ;
#221 = CALENDAR_DATE ( 2013, 9, 5 ) ;
#222 = CC_DESIGN_APPROVAL ( #31, ( #62 ) ) ;
#223 = COORDINATED_UNIVERSAL_TIME_OFFSET ( 9, 0, .AHEAD. ) ;
#224 = CALENDAR_DATE ( 2013, 9, 5 ) ;
#225 = PRODUCT_DEFINITION_FORMATION_WITH_SPECIFIED_SOURCE ( 'ANY', '', #29, .NOT_KNOWN. ) ;
#226 = APPROVAL_PERSON_ORGANIZATION ( #192, #39, #194 ) ;
#227 = COORDINATED_UNIVERSAL_TIME_OFFSET ( 9, 0, .AHEAD. ) ;
#228 = CALENDAR_DATE ( 2013, 9, 5 ) ;
#229 = CC_DESIGN_APPROVAL ( #39, ( #225 ) ) ;
#230 = SECURITY_CLASSIFICATION ( '', '', #201 ) ;
#231 = COORDINATED_UNIVERSAL_TIME_OFFSET ( 9, 0, .AHEAD. ) ;
#232 = CALENDAR_DATE ( 2013, 9, 5 ) ;
#233 = APPROVAL_PERSON_ORGANIZATION ( #206, #47, #208 ) ;
#234 = COORDINATED_UNIVERSAL_TIME_OFFSET ( 9, 0, .AHEAD. ) ;
#235 = CALENDAR_DATE ( 2013, 9, 5 ) ;
#236 = CC_DESIGN_APPROVAL ( #47, ( #230 ) ) ;
#237 = CC_DESIGN_SECURITY_CLASSIFICATION ( #230, ( #225 ) ) ;
ENDSEC;
END-ISO-10303-21;
