ISO-10303-21;
HEADER;
FILE_DESCRIPTION (( 'STEP AP203' ),
    '1' );
FILE_NAME ('ª®3D.STEP',
    '2013-05-09T05:38:14',
    ( '11sw' ),
    ( '^LQ»¢®ïÐ' ),
    'SwSTEP 2.0',
    'SolidWorks 2012',
    '' );
FILE_SCHEMA (( 'CONFIG_CONTROL_DESIGN' ));
ENDSEC;

DATA;
#1 = FACE_OUTER_BOUND ( 'NONE', #122, .T. ) ;
#2 = VECTOR ( 'NONE', #138, 1000.000000000000000 ) ;
#3 = FACE_OUTER_BOUND ( 'NONE', #124, .T. ) ;
#4 = VECTOR ( 'NONE', #132, 1000.000000000000000 ) ;
#5 = CALENDAR_DATE ( 2013, 9, 5 ) ;
#6 = ORGANIZATION ( 'UNSPECIFIED', 'UNSPECIFIED', '' ) ;
#7 = COORDINATED_UNIVERSAL_TIME_OFFSET ( 9, 0, .AHEAD. ) ;
#8 = VECTOR ( 'NONE', #153, 1000.000000000000000 ) ;
#9 = FACE_OUTER_BOUND ( 'NONE', #123, .T. ) ;
#10 = FACE_OUTER_BOUND ( 'NONE', #121, .T. ) ;
#11 = VECTOR ( 'NONE', #135, 1000.000000000000000 ) ;
#12 = VECTOR ( 'NONE', #147, 1000.000000000000000 ) ;
#13 = AXIS2_PLACEMENT_3D ( 'NONE', #180, #181, #182 ) ;
#14 = AXIS2_PLACEMENT_3D ( 'NONE', #161, #168, #170 ) ;
#15 = CLOSED_SHELL ( 'NONE', ( #76, #74, #75, #88, #87, #81 ) ) ;
#16 = VECTOR ( 'NONE', #128, 1000.000000000000000 ) ;
#17 = VECTOR ( 'NONE', #150, 1000.000000000000000 ) ;
#18 = FACE_OUTER_BOUND ( 'NONE', #120, .T. ) ;
#19 = AXIS2_PLACEMENT_3D ( 'NONE', #169, #171, #172 ) ;
#20 = VECTOR ( 'NONE', #141, 1000.000000000000000 ) ;
#21 = AXIS2_PLACEMENT_3D ( 'NONE', #157, #175, #174 ) ;
#22 = VECTOR ( 'NONE', #162, 1000.000000000000000 ) ;
#23 = AXIS2_PLACEMENT_3D ( 'NONE', #154, #155, #156 ) ;
#24 = VECTOR ( 'NONE', #144, 1000.000000000000000 ) ;
#25 = FACE_OUTER_BOUND ( 'NONE', #125, .T. ) ;
#26 = AXIS2_PLACEMENT_3D ( 'NONE', #184, #185, #186 ) ;
#27 = AXIS2_PLACEMENT_3D ( 'NONE', #199, #200, #201 ) ;
#28 = APPROVAL_PERSON_ORGANIZATION ( #207, #79, #209 ) ;
#29 = VECTOR ( 'NONE', #178, 1000.000000000000000 ) ;
#30 = VECTOR ( 'NONE', #166, 1000.000000000000000 ) ;
#31 = APPLICATION_CONTEXT ( 'configuration controlled 3d designs of mechanical parts and assemblies' ) ;
#32 = APPLICATION_CONTEXT ( 'configuration controlled 3d designs of mechanical parts and assemblies' ) ;
#33 = CC_DESIGN_APPROVAL ( #79, ( #84 ) ) ;
#34 = COORDINATED_UNIVERSAL_TIME_OFFSET ( 9, 0, .AHEAD. ) ;
#35 = CALENDAR_DATE ( 2013, 9, 5 ) ;
#36 = PRODUCT_DEFINITION_FORMATION_WITH_SPECIFIED_SOURCE ( 'ANY', '', #53, .NOT_KNOWN. ) ;
#37 = APPROVAL_PERSON_ORGANIZATION ( #216, #63, #218 ) ;
#38 = COORDINATED_UNIVERSAL_TIME_OFFSET ( 9, 0, .AHEAD. ) ;
#39 = CALENDAR_DATE ( 2013, 9, 5 ) ;
#40 = CC_DESIGN_APPROVAL ( #63, ( #36 ) ) ;
#41 = SECURITY_CLASSIFICATION ( '', '', #225 ) ;
#42 = COORDINATED_UNIVERSAL_TIME_OFFSET ( 9, 0, .AHEAD. ) ;
#43 = CALENDAR_DATE ( 2013, 9, 5 ) ;
#44 = APPROVAL_PERSON_ORGANIZATION ( #230, #60, #232 ) ;
#45 = COORDINATED_UNIVERSAL_TIME_OFFSET ( 9, 0, .AHEAD. ) ;
#46 = CALENDAR_DATE ( 2013, 9, 5 ) ;
#47 = CC_DESIGN_APPROVAL ( #60, ( #41 ) ) ;
#48 = CC_DESIGN_SECURITY_CLASSIFICATION ( #41, ( #36 ) ) ;
#49 =( GEOMETRIC_REPRESENTATION_CONTEXT ( 3 ) GLOBAL_UNCERTAINTY_ASSIGNED_CONTEXT ( ( #51 ) ) GLOBAL_UNIT_ASSIGNED_CONTEXT ( ( #195, #196, #197 ) ) REPRESENTATION_CONTEXT ( 'NONE', 'WORKASPACE' ) );
#50 = PERSON ( 'UNSPECIFIED', 'UNSPECIFIED', 'UNSPECIFIED', ('UNSPECIFIED'), ('UNSPECIFIED'), ('UNSPECIFIED') ) ;
#51 = UNCERTAINTY_MEASURE_WITH_UNIT (LENGTH_MEASURE( 1.000000000000000100E-005 ), #195, 'distance_accuracy_value', 'NONE');
#52 = ADVANCED_BREP_SHAPE_REPRESENTATION ( 'ª®3D', ( #236, #27 ), #49 ) ;
#53 = PRODUCT ( 'ª®3D', 'ª®3D', '', ( #203 ) ) ;
#54 = EDGE_CURVE ( 'NONE', #93, #94, #126, .T. ) ;
#55 = EDGE_CURVE ( 'NONE', #91, #90, #130, .T. ) ;
#56 = LOCAL_TIME ( 14, 38, 14.00000000000000000, #45 ) ;
#57 = PRODUCT_RELATED_PRODUCT_CATEGORY ( 'detail', '', ( #53 ) ) ;
#58 = LOCAL_TIME ( 14, 38, 14.00000000000000000, #38 ) ;
#59 = CC_DESIGN_DATE_AND_TIME_ASSIGNMENT ( #228, #229, ( #41 ) ) ;
#60 = APPROVAL ( #231, 'UNSPECIFIED' ) ;
#61 = LOCAL_TIME ( 14, 38, 14.00000000000000000, #42 ) ;
#62 = CC_DESIGN_PERSON_AND_ORGANIZATION_ASSIGNMENT ( #226, #227, ( #41 ) ) ;
#63 = APPROVAL ( #217, 'UNSPECIFIED' ) ;
#64 = CC_DESIGN_PERSON_AND_ORGANIZATION_ASSIGNMENT ( #223, #224, ( #36 ) ) ;
#65 = CC_DESIGN_PERSON_AND_ORGANIZATION_ASSIGNMENT ( #221, #222, ( #36 ) ) ;
#66 = CC_DESIGN_DATE_AND_TIME_ASSIGNMENT ( #214, #215, ( #84 ) ) ;
#67 = EDGE_CURVE ( 'NONE', #89, #91, #133, .T. ) ;
#68 = EDGE_CURVE ( 'NONE', #92, #95, #136, .T. ) ;
#69 = EDGE_CURVE ( 'NONE', #158, #90, #139, .T. ) ;
#70 = EDGE_CURVE ( 'NONE', #89, #158, #142, .T. ) ;
#71 = EDGE_CURVE ( 'NONE', #94, #158, #145, .T. ) ;
#72 = EDGE_CURVE ( 'NONE', #91, #92, #148, .T. ) ;
#73 = EDGE_CURVE ( 'NONE', #95, #94, #151, .T. ) ;
#74 = ADVANCED_FACE ( 'NONE', ( #1 ), #129, .F. ) ;
#75 = ADVANCED_FACE ( 'NONE', ( #10 ), #159, .F. ) ;
#76 = ADVANCED_FACE ( 'NONE', ( #25 ), #160, .F. ) ;
#77 = EDGE_CURVE ( 'NONE', #92, #93, #167, .T. ) ;
#78 = LOCAL_TIME ( 14, 38, 14.00000000000000000, #34 ) ;
#79 = APPROVAL ( #208, 'UNSPECIFIED' ) ;
#80 = EDGE_CURVE ( 'NONE', #93, #89, #165, .T. ) ;
#81 = ADVANCED_FACE ( 'NONE', ( #18 ), #163, .F. ) ;
#82 = CC_DESIGN_PERSON_AND_ORGANIZATION_ASSIGNMENT ( #204, #205, ( #53 ) ) ;
#83 = CC_DESIGN_PERSON_AND_ORGANIZATION_ASSIGNMENT ( #212, #213, ( #84 ) ) ;
#84 = PRODUCT_DEFINITION ( 'UNKNOWN', '', #36, #235 ) ;
#85 = EDGE_CURVE ( 'NONE', #90, #95, #176, .T. ) ;
#86 = LOCAL_TIME ( 14, 38, 14.00000000000000000, #7 ) ;
#87 = ADVANCED_FACE ( 'NONE', ( #9 ), #179, .T. ) ;
#88 = ADVANCED_FACE ( 'NONE', ( #3 ), #183, .F. ) ;
#89 = VERTEX_POINT ( 'NONE', #187 ) ;
#90 = VERTEX_POINT ( 'NONE', #188 ) ;
#91 = VERTEX_POINT ( 'NONE', #189 ) ;
#92 = VERTEX_POINT ( 'NONE', #190 ) ;
#93 = VERTEX_POINT ( 'NONE', #191 ) ;
#94 = VERTEX_POINT ( 'NONE', #192 ) ;
#95 = VERTEX_POINT ( 'NONE', #193 ) ;
#96 = ORIENTED_EDGE ( 'NONE', *, *, #67, .T. ) ;
#97 = ORIENTED_EDGE ( 'NONE', *, *, #68, .T. ) ;
#98 = ORIENTED_EDGE ( 'NONE', *, *, #72, .F. ) ;
#99 = ORIENTED_EDGE ( 'NONE', *, *, #54, .F. ) ;
#100 = ORIENTED_EDGE ( 'NONE', *, *, #68, .F. ) ;
#101 = ORIENTED_EDGE ( 'NONE', *, *, #55, .T. ) ;
#102 = ORIENTED_EDGE ( 'NONE', *, *, #69, .T. ) ;
#103 = ORIENTED_EDGE ( 'NONE', *, *, #71, .F. ) ;
#104 = ORIENTED_EDGE ( 'NONE', *, *, #85, .T. ) ;
#105 = ORIENTED_EDGE ( 'NONE', *, *, #70, .T. ) ;
#106 = ORIENTED_EDGE ( 'NONE', *, *, #55, .F. ) ;
#107 = ORIENTED_EDGE ( 'NONE', *, *, #67, .F. ) ;
#108 = ORIENTED_EDGE ( 'NONE', *, *, #54, .T. ) ;
#109 = ORIENTED_EDGE ( 'NONE', *, *, #71, .T. ) ;
#110 = ORIENTED_EDGE ( 'NONE', *, *, #70, .F. ) ;
#111 = ORIENTED_EDGE ( 'NONE', *, *, #77, .F. ) ;
#112 = ORIENTED_EDGE ( 'NONE', *, *, #80, .F. ) ;
#113 = ORIENTED_EDGE ( 'NONE', *, *, #73, .T. ) ;
#114 = ORIENTED_EDGE ( 'NONE', *, *, #69, .F. ) ;
#115 = ORIENTED_EDGE ( 'NONE', *, *, #73, .F. ) ;
#116 = ORIENTED_EDGE ( 'NONE', *, *, #72, .T. ) ;
#117 = ORIENTED_EDGE ( 'NONE', *, *, #85, .F. ) ;
#118 = ORIENTED_EDGE ( 'NONE', *, *, #77, .T. ) ;
#119 = ORIENTED_EDGE ( 'NONE', *, *, #80, .T. ) ;
#120 = EDGE_LOOP ( 'NONE', ( #103, #115, #117, #114 ) ) ;
#121 = EDGE_LOOP ( 'NONE', ( #104, #100, #98, #101 ) ) ;
#122 = EDGE_LOOP ( 'NONE', ( #102, #106, #107, #105 ) ) ;
#123 = EDGE_LOOP ( 'NONE', ( #119, #96, #116, #118 ) ) ;
#124 = EDGE_LOOP ( 'NONE', ( #113, #99, #111, #97 ) ) ;
#125 = EDGE_LOOP ( 'NONE', ( #109, #110, #112, #108 ) ) ;
#126 = LINE ( 'NONE', #127, #16 ) ;
#127 = CARTESIAN_POINT ( 'NONE',  ( -10.00000000000000000, 1.500000000000001100, 1000.000000000000000 ) ) ;
#128 = DIRECTION ( 'NONE',  ( -0.0000000000000000000, -0.0000000000000000000, -1.000000000000000000 ) ) ;
#129 = PLANE ( 'NONE',  #23 ) ;
#130 = LINE ( 'NONE', #131, #4 ) ;
#131 = CARTESIAN_POINT ( 'NONE',  ( 10.00000000000000000, -1.500000000000000000, 1000.000000000000000 ) ) ;
#132 = DIRECTION ( 'NONE',  ( -0.0000000000000000000, -0.0000000000000000000, -1.000000000000000000 ) ) ;
#133 = LINE ( 'NONE', #134, #11 ) ;
#134 = CARTESIAN_POINT ( 'NONE',  ( -10.00000000000000000, -1.500000000000001100, 1000.000000000000000 ) ) ;
#135 = DIRECTION ( 'NONE',  ( 1.000000000000000000, 5.421010862427522200E-017, 0.0000000000000000000 ) ) ;
#136 = LINE ( 'NONE', #137, #2 ) ;
#137 = CARTESIAN_POINT ( 'NONE',  ( 10.00000000000000000, 1.500000000000000000, 1000.000000000000000 ) ) ;
#138 = DIRECTION ( 'NONE',  ( -0.0000000000000000000, -0.0000000000000000000, -1.000000000000000000 ) ) ;
#139 = LINE ( 'NONE', #140, #20 ) ;
#140 = CARTESIAN_POINT ( 'NONE',  ( -10.00000000000000000, -1.500000000000001100, -1000.000000000000000 ) ) ;
#141 = DIRECTION ( 'NONE',  ( 1.000000000000000000, 5.421010862427522200E-017, 0.0000000000000000000 ) ) ;
#142 = LINE ( 'NONE', #143, #24 ) ;
#143 = CARTESIAN_POINT ( 'NONE',  ( -10.00000000000000000, -1.500000000000001100, 1000.000000000000000 ) ) ;
#144 = DIRECTION ( 'NONE',  ( -0.0000000000000000000, -0.0000000000000000000, -1.000000000000000000 ) ) ;
#145 = LINE ( 'NONE', #146, #12 ) ;
#146 = CARTESIAN_POINT ( 'NONE',  ( -10.00000000000000000, 1.500000000000001100, -1000.000000000000000 ) ) ;
#147 = DIRECTION ( 'NONE',  ( 0.0000000000000000000, -1.000000000000000000, 0.0000000000000000000 ) ) ;
#148 = LINE ( 'NONE', #149, #17 ) ;
#149 = CARTESIAN_POINT ( 'NONE',  ( 10.00000000000000000, 1.500000000000000000, 1000.000000000000000 ) ) ;
#150 = DIRECTION ( 'NONE',  ( -0.0000000000000000000, 1.000000000000000000, -0.0000000000000000000 ) ) ;
#151 = LINE ( 'NONE', #152, #8 ) ;
#152 = CARTESIAN_POINT ( 'NONE',  ( -10.00000000000000000, 1.500000000000001100, -1000.000000000000000 ) ) ;
#153 = DIRECTION ( 'NONE',  ( -1.000000000000000000, 5.421010862427522200E-017, -0.0000000000000000000 ) ) ;
#154 = CARTESIAN_POINT ( 'NONE',  ( -10.00000000000000000, -1.500000000000001100, 1000.000000000000000 ) ) ;
#155 = DIRECTION ( 'NONE',  ( -5.421010862427522200E-017, 1.000000000000000000, 0.0000000000000000000 ) ) ;
#156 = DIRECTION ( 'NONE',  ( -1.000000000000000000, -5.421010862427522200E-017, 0.0000000000000000000 ) ) ;
#157 = CARTESIAN_POINT ( 'NONE',  ( 0.0000000000000000000, 0.0000000000000000000, -1000.000000000000000 ) ) ;
#158 = VERTEX_POINT ( 'NONE', #194 ) ;
#159 = PLANE ( 'NONE',  #14 ) ;
#160 = PLANE ( 'NONE',  #19 ) ;
#161 = CARTESIAN_POINT ( 'NONE',  ( 10.00000000000000000, 1.500000000000000000, 1000.000000000000000 ) ) ;
#162 = DIRECTION ( 'NONE',  ( 0.0000000000000000000, -1.000000000000000000, 0.0000000000000000000 ) ) ;
#163 = PLANE ( 'NONE',  #21 ) ;
#164 = CARTESIAN_POINT ( 'NONE',  ( -10.00000000000000000, 1.500000000000001100, 1000.000000000000000 ) ) ;
#165 = LINE ( 'NONE', #173, #22 ) ;
#166 = DIRECTION ( 'NONE',  ( -1.000000000000000000, 5.421010862427522200E-017, -0.0000000000000000000 ) ) ;
#167 = LINE ( 'NONE', #164, #30 ) ;
#168 = DIRECTION ( 'NONE',  ( -1.000000000000000000, 0.0000000000000000000, 0.0000000000000000000 ) ) ;
#169 = CARTESIAN_POINT ( 'NONE',  ( -10.00000000000000000, 1.500000000000001100, 1000.000000000000000 ) ) ;
#170 = DIRECTION ( 'NONE',  ( 0.0000000000000000000, 0.0000000000000000000, 1.000000000000000000 ) ) ;
#171 = DIRECTION ( 'NONE',  ( 1.000000000000000000, 0.0000000000000000000, -0.0000000000000000000 ) ) ;
#172 = DIRECTION ( 'NONE',  ( -0.0000000000000000000, 0.0000000000000000000, -1.000000000000000000 ) ) ;
#173 = CARTESIAN_POINT ( 'NONE',  ( -10.00000000000000000, 1.500000000000001100, 1000.000000000000000 ) ) ;
#174 = DIRECTION ( 'NONE',  ( 1.000000000000000000, 0.0000000000000000000, 0.0000000000000000000 ) ) ;
#175 = DIRECTION ( 'NONE',  ( -0.0000000000000000000, 0.0000000000000000000, 1.000000000000000000 ) ) ;
#176 = LINE ( 'NONE', #177, #29 ) ;
#177 = CARTESIAN_POINT ( 'NONE',  ( 10.00000000000000000, 1.500000000000000000, -1000.000000000000000 ) ) ;
#178 = DIRECTION ( 'NONE',  ( -0.0000000000000000000, 1.000000000000000000, -0.0000000000000000000 ) ) ;
#179 = PLANE ( 'NONE',  #13 ) ;
#180 = CARTESIAN_POINT ( 'NONE',  ( 0.0000000000000000000, 0.0000000000000000000, 1000.000000000000000 ) ) ;
#181 = DIRECTION ( 'NONE',  ( -0.0000000000000000000, 0.0000000000000000000, 1.000000000000000000 ) ) ;
#182 = DIRECTION ( 'NONE',  ( 1.000000000000000000, 0.0000000000000000000, 0.0000000000000000000 ) ) ;
#183 = PLANE ( 'NONE',  #26 ) ;
#184 = CARTESIAN_POINT ( 'NONE',  ( -10.00000000000000000, 1.500000000000001100, 1000.000000000000000 ) ) ;
#185 = DIRECTION ( 'NONE',  ( -5.421010862427522200E-017, -1.000000000000000000, 0.0000000000000000000 ) ) ;
#186 = DIRECTION ( 'NONE',  ( 1.000000000000000000, -5.421010862427522200E-017, 0.0000000000000000000 ) ) ;
#187 = CARTESIAN_POINT ( 'NONE',  ( -10.00000000000000000, -1.500000000000001100, 1000.000000000000000 ) ) ;
#188 = CARTESIAN_POINT ( 'NONE',  ( 10.00000000000000000, -1.500000000000000000, -1000.000000000000000 ) ) ;
#189 = CARTESIAN_POINT ( 'NONE',  ( 10.00000000000000000, -1.500000000000000000, 1000.000000000000000 ) ) ;
#190 = CARTESIAN_POINT ( 'NONE',  ( 10.00000000000000000, 1.500000000000000000, 1000.000000000000000 ) ) ;
#191 = CARTESIAN_POINT ( 'NONE',  ( -10.00000000000000000, 1.500000000000001100, 1000.000000000000000 ) ) ;
#192 = CARTESIAN_POINT ( 'NONE',  ( -10.00000000000000000, 1.500000000000001100, -1000.000000000000000 ) ) ;
#193 = CARTESIAN_POINT ( 'NONE',  ( 10.00000000000000000, 1.500000000000000000, -1000.000000000000000 ) ) ;
#194 = CARTESIAN_POINT ( 'NONE',  ( -10.00000000000000000, -1.500000000000001100, -1000.000000000000000 ) ) ;
#195 =( LENGTH_UNIT ( ) NAMED_UNIT ( * ) SI_UNIT ( .MILLI., .METRE. ) );
#196 =( NAMED_UNIT ( * ) PLANE_ANGLE_UNIT ( ) SI_UNIT ( $, .RADIAN. ) );
#197 =( NAMED_UNIT ( * ) SI_UNIT ( $, .STERADIAN. ) SOLID_ANGLE_UNIT ( ) );
#198 = APPLICATION_PROTOCOL_DEFINITION ( 'international standard', 'config_control_design', 1994, #32 ) ;
#199 = CARTESIAN_POINT ( 'NONE',  ( 0.0000000000000000000, 0.0000000000000000000, 0.0000000000000000000 ) ) ;
#200 = DIRECTION ( 'NONE',  ( 0.0000000000000000000, 0.0000000000000000000, 1.000000000000000000 ) ) ;
#201 = DIRECTION ( 'NONE',  ( 1.000000000000000000, 0.0000000000000000000, 0.0000000000000000000 ) ) ;
#202 = SHAPE_DEFINITION_REPRESENTATION ( #237, #52 ) ;
#203 = MECHANICAL_CONTEXT ( 'NONE', #32, 'mechanical' ) ;
#204 = PERSON_AND_ORGANIZATION ( #50, #6 ) ;
#205 = PERSON_AND_ORGANIZATION_ROLE ( 'design_owner' ) ;
#206 = APPLICATION_PROTOCOL_DEFINITION ( 'international standard', 'config_control_design', 1994, #31 ) ;
#207 = PERSON_AND_ORGANIZATION ( #50, #6 ) ;
#208 = APPROVAL_STATUS ( 'not_yet_approved' ) ;
#209 = APPROVAL_ROLE ( '' ) ;
#210 = DATE_AND_TIME ( #5, #86 ) ;
#211 = APPROVAL_DATE_TIME ( #210, #79 ) ;
#212 = PERSON_AND_ORGANIZATION ( #50, #6 ) ;
#213 = PERSON_AND_ORGANIZATION_ROLE ( 'creator' ) ;
#214 = DATE_AND_TIME ( #35, #78 ) ;
#215 = DATE_TIME_ROLE ( 'creation_date' ) ;
#216 = PERSON_AND_ORGANIZATION ( #50, #6 ) ;
#217 = APPROVAL_STATUS ( 'not_yet_approved' ) ;
#218 = APPROVAL_ROLE ( '' ) ;
#219 = DATE_AND_TIME ( #39, #58 ) ;
#220 = APPROVAL_DATE_TIME ( #219, #63 ) ;
#221 = PERSON_AND_ORGANIZATION ( #50, #6 ) ;
#222 = PERSON_AND_ORGANIZATION_ROLE ( 'creator' ) ;
#223 = PERSON_AND_ORGANIZATION ( #50, #6 ) ;
#224 = PERSON_AND_ORGANIZATION_ROLE ( 'design_supplier' ) ;
#225 = SECURITY_CLASSIFICATION_LEVEL ( 'unclassified' ) ;
#226 = PERSON_AND_ORGANIZATION ( #50, #6 ) ;
#227 = PERSON_AND_ORGANIZATION_ROLE ( 'classification_officer' ) ;
#228 = DATE_AND_TIME ( #43, #61 ) ;
#229 = DATE_TIME_ROLE ( 'classification_date' ) ;
#230 = PERSON_AND_ORGANIZATION ( #50, #6 ) ;
#231 = APPROVAL_STATUS ( 'not_yet_approved' ) ;
#232 = APPROVAL_ROLE ( '' ) ;
#233 = DATE_AND_TIME ( #46, #56 ) ;
#234 = APPROVAL_DATE_TIME ( #233, #60 ) ;
#235 = DESIGN_CONTEXT ( 'detailed design', #31, 'design' ) ;
#236 = MANIFOLD_SOLID_BREP ( 'ÎÞ½ - µoµ1', #15 ) ;
#237 = PRODUCT_DEFINITION_SHAPE ( 'NONE', 'NONE',  #84 ) ;
ENDSEC;
END-ISO-10303-21;
