ISO-10303-21;
HEADER;
FILE_DESCRIPTION (( 'STEP AP203' ),
    '1' );
FILE_NAME ('ª®3D.STEP',
    '2013-05-09T05:37:00',
    ( '11sw' ),
    ( '^LQ»¢®ïÐ' ),
    'SwSTEP 2.0',
    'SolidWorks 2012',
    '' );
FILE_SCHEMA (( 'CONFIG_CONTROL_DESIGN' ));
ENDSEC;

DATA;
#1 = CC_DESIGN_APPROVAL ( #70, ( #55 ) ) ;
#2 = VECTOR ( 'NONE', #132, 1000.000000000000000 ) ;
#3 = VECTOR ( 'NONE', #182, 1000.000000000000000 ) ;
#4 = AXIS2_PLACEMENT_3D ( 'NONE', #144, #179, #178 ) ;
#5 = APPROVAL_PERSON_ORGANIZATION ( #207, #70, #209 ) ;
#6 = VECTOR ( 'NONE', #129, 1000.000000000000000 ) ;
#7 = FACE_OUTER_BOUND ( 'NONE', #106, .T. ) ;
#8 = APPROVAL_PERSON_ORGANIZATION ( #216, #63, #218 ) ;
#9 = VECTOR ( 'NONE', #154, 1000.000000000000000 ) ;
#10 = VECTOR ( 'NONE', #142, 1000.000000000000000 ) ;
#11 = VECTOR ( 'NONE', #163, 1000.000000000000000 ) ;
#12 = CALENDAR_DATE ( 2013, 9, 5 ) ;
#13 = PRODUCT_DEFINITION_FORMATION_WITH_SPECIFIED_SOURCE ( 'ANY', '', #53, .NOT_KNOWN. ) ;
#14 = VECTOR ( 'NONE', #126, 1000.000000000000000 ) ;
#15 = SECURITY_CLASSIFICATION ( '', '', #225 ) ;
#16 = FACE_OUTER_BOUND ( 'NONE', #104, .T. ) ;
#17 = AXIS2_PLACEMENT_3D ( 'NONE', #113, #114, #115 ) ;
#18 = VECTOR ( 'NONE', #122, 1000.000000000000000 ) ;
#19 = COORDINATED_UNIVERSAL_TIME_OFFSET ( 9, 0, .AHEAD. ) ;
#20 = COORDINATED_UNIVERSAL_TIME_OFFSET ( 9, 0, .AHEAD. ) ;
#21 = CC_DESIGN_SECURITY_CLASSIFICATION ( #15, ( #13 ) ) ;
#22 = CALENDAR_DATE ( 2013, 9, 5 ) ;
#23 = APPROVAL_PERSON_ORGANIZATION ( #230, #69, #232 ) ;
#24 = CALENDAR_DATE ( 2013, 9, 5 ) ;
#25 = AXIS2_PLACEMENT_3D ( 'NONE', #137, #138, #139 ) ;
#26 = ORGANIZATION ( 'UNSPECIFIED', 'UNSPECIFIED', '' ) ;
#27 = VECTOR ( 'NONE', #155, 1000.000000000000000 ) ;
#28 = VECTOR ( 'NONE', #149, 1000.000000000000000 ) ;
#29 = FACE_OUTER_BOUND ( 'NONE', #107, .T. ) ;
#30 = CC_DESIGN_APPROVAL ( #63, ( #13 ) ) ;
#31 = CC_DESIGN_APPROVAL ( #69, ( #15 ) ) ;
#32 = FACE_OUTER_BOUND ( 'NONE', #108, .T. ) ;
#33 = VECTOR ( 'NONE', #111, 1000.000000000000000 ) ;
#34 = CALENDAR_DATE ( 2013, 9, 5 ) ;
#35 = COORDINATED_UNIVERSAL_TIME_OFFSET ( 9, 0, .AHEAD. ) ;
#36 = VECTOR ( 'NONE', #150, 1000.000000000000000 ) ;
#37 = FACE_OUTER_BOUND ( 'NONE', #105, .T. ) ;
#38 = AXIS2_PLACEMENT_3D ( 'NONE', #199, #200, #201 ) ;
#39 = FACE_OUTER_BOUND ( 'NONE', #103, .T. ) ;
#40 = CALENDAR_DATE ( 2013, 9, 5 ) ;
#41 = AXIS2_PLACEMENT_3D ( 'NONE', #133, #134, #135 ) ;
#42 = CLOSED_SHELL ( 'NONE', ( #88, #73, #86, #72, #78, #79 ) ) ;
#43 = COORDINATED_UNIVERSAL_TIME_OFFSET ( 9, 0, .AHEAD. ) ;
#44 = AXIS2_PLACEMENT_3D ( 'NONE', #117, #118, #119 ) ;
#45 = AXIS2_PLACEMENT_3D ( 'NONE', #184, #185, #186 ) ;
#46 = COORDINATED_UNIVERSAL_TIME_OFFSET ( 9, 0, .AHEAD. ) ;
#47 =( GEOMETRIC_REPRESENTATION_CONTEXT ( 3 ) GLOBAL_UNCERTAINTY_ASSIGNED_CONTEXT ( ( #52 ) ) GLOBAL_UNIT_ASSIGNED_CONTEXT ( ( #195, #196, #197 ) ) REPRESENTATION_CONTEXT ( 'NONE', 'WORKASPACE' ) );
#48 = APPLICATION_CONTEXT ( 'configuration controlled 3d designs of mechanical parts and assemblies' ) ;
#49 = APPLICATION_CONTEXT ( 'configuration controlled 3d designs of mechanical parts and assemblies' ) ;
#50 = ADVANCED_BREP_SHAPE_REPRESENTATION ( 'ª®3D', ( #235, #38 ), #47 ) ;
#51 = PERSON ( 'UNSPECIFIED', 'UNSPECIFIED', 'UNSPECIFIED', ('UNSPECIFIED'), ('UNSPECIFIED'), ('UNSPECIFIED') ) ;
#52 = UNCERTAINTY_MEASURE_WITH_UNIT (LENGTH_MEASURE( 1.000000000000000100E-005 ), #195, 'distance_accuracy_value', 'NONE');
#53 = PRODUCT ( 'ª®3D', 'ª®3D', '', ( #203 ) ) ;
#54 = CC_DESIGN_PERSON_AND_ORGANIZATION_ASSIGNMENT ( #204, #205, ( #53 ) ) ;
#55 = PRODUCT_DEFINITION ( 'UNKNOWN', '', #13, #237 ) ;
#56 = PRODUCT_RELATED_PRODUCT_CATEGORY ( 'detail', '', ( #53 ) ) ;
#57 = CC_DESIGN_DATE_AND_TIME_ASSIGNMENT ( #214, #215, ( #55 ) ) ;
#58 = LOCAL_TIME ( 14, 37, 0.0000000000000000000, #35 ) ;
#59 = CC_DESIGN_PERSON_AND_ORGANIZATION_ASSIGNMENT ( #221, #222, ( #13 ) ) ;
#60 = CC_DESIGN_PERSON_AND_ORGANIZATION_ASSIGNMENT ( #212, #213, ( #55 ) ) ;
#61 = LOCAL_TIME ( 14, 37, 0.0000000000000000000, #19 ) ;
#62 = LOCAL_TIME ( 14, 37, 0.0000000000000000000, #20 ) ;
#63 = APPROVAL ( #217, 'UNSPECIFIED' ) ;
#64 = LOCAL_TIME ( 14, 37, 0.0000000000000000000, #43 ) ;
#65 = CC_DESIGN_PERSON_AND_ORGANIZATION_ASSIGNMENT ( #226, #227, ( #15 ) ) ;
#66 = EDGE_CURVE ( 'NONE', #100, #102, #109, .T. ) ;
#67 = LOCAL_TIME ( 14, 37, 0.0000000000000000000, #46 ) ;
#68 = CC_DESIGN_DATE_AND_TIME_ASSIGNMENT ( #228, #229, ( #15 ) ) ;
#69 = APPROVAL ( #231, 'UNSPECIFIED' ) ;
#70 = APPROVAL ( #208, 'UNSPECIFIED' ) ;
#71 = CC_DESIGN_PERSON_AND_ORGANIZATION_ASSIGNMENT ( #223, #224, ( #13 ) ) ;
#72 = ADVANCED_FACE ( 'NONE', ( #37 ), #112, .F. ) ;
#73 = ADVANCED_FACE ( 'NONE', ( #32 ), #116, .F. ) ;
#74 = EDGE_CURVE ( 'NONE', #99, #96, #120, .T. ) ;
#75 = EDGE_CURVE ( 'NONE', #97, #99, #124, .T. ) ;
#76 = EDGE_CURVE ( 'NONE', #101, #99, #127, .T. ) ;
#77 = EDGE_CURVE ( 'NONE', #96, #95, #130, .T. ) ;
#78 = ADVANCED_FACE ( 'NONE', ( #16 ), #123, .T. ) ;
#79 = ADVANCED_FACE ( 'NONE', ( #39 ), #136, .F. ) ;
#80 = EDGE_CURVE ( 'NONE', #98, #97, #140, .T. ) ;
#81 = EDGE_CURVE ( 'NONE', #95, #101, #145, .T. ) ;
#82 = EDGE_CURVE ( 'NONE', #97, #100, #156, .T. ) ;
#83 = EDGE_CURVE ( 'NONE', #98, #101, #157, .T. ) ;
#84 = EDGE_CURVE ( 'NONE', #102, #95, #148, .T. ) ;
#85 = EDGE_CURVE ( 'NONE', #100, #96, #153, .T. ) ;
#86 = ADVANCED_FACE ( 'NONE', ( #29 ), #143, .F. ) ;
#87 = EDGE_CURVE ( 'NONE', #102, #98, #180, .T. ) ;
#88 = ADVANCED_FACE ( 'NONE', ( #7 ), #183, .F. ) ;
#89 = ORIENTED_EDGE ( 'NONE', *, *, #66, .T. ) ;
#90 = ORIENTED_EDGE ( 'NONE', *, *, #74, .F. ) ;
#91 = ORIENTED_EDGE ( 'NONE', *, *, #77, .F. ) ;
#92 = ORIENTED_EDGE ( 'NONE', *, *, #76, .F. ) ;
#93 = ORIENTED_EDGE ( 'NONE', *, *, #85, .T. ) ;
#94 = ORIENTED_EDGE ( 'NONE', *, *, #77, .T. ) ;
#95 = VERTEX_POINT ( 'NONE', #187 ) ;
#96 = VERTEX_POINT ( 'NONE', #188 ) ;
#97 = VERTEX_POINT ( 'NONE', #189 ) ;
#98 = VERTEX_POINT ( 'NONE', #190 ) ;
#99 = VERTEX_POINT ( 'NONE', #191 ) ;
#100 = VERTEX_POINT ( 'NONE', #192 ) ;
#101 = VERTEX_POINT ( 'NONE', #193 ) ;
#102 = VERTEX_POINT ( 'NONE', #194 ) ;
#103 = EDGE_LOOP ( 'NONE', ( #91, #90, #92, #159 ) ) ;
#104 = EDGE_LOOP ( 'NONE', ( #89, #165, #161, #160 ) ) ;
#105 = EDGE_LOOP ( 'NONE', ( #176, #175, #177, #162 ) ) ;
#106 = EDGE_LOOP ( 'NONE', ( #94, #164, #166, #93 ) ) ;
#107 = EDGE_LOOP ( 'NONE', ( #170, #173, #174, #172 ) ) ;
#108 = EDGE_LOOP ( 'NONE', ( #171, #168, #167, #169 ) ) ;
#109 = LINE ( 'NONE', #110, #33 ) ;
#110 = CARTESIAN_POINT ( 'NONE',  ( -7.500000000000000000, 1.500000000000000700, 1000.000000000000000 ) ) ;
#111 = DIRECTION ( 'NONE',  ( 0.0000000000000000000, -1.000000000000000000, 0.0000000000000000000 ) ) ;
#112 = PLANE ( 'NONE',  #17 ) ;
#113 = CARTESIAN_POINT ( 'NONE',  ( -7.500000000000000000, 1.500000000000000700, 1000.000000000000000 ) ) ;
#114 = DIRECTION ( 'NONE',  ( -4.336808689942017700E-017, -1.000000000000000000, 0.0000000000000000000 ) ) ;
#115 = DIRECTION ( 'NONE',  ( 1.000000000000000000, -4.336808689942017700E-017, 0.0000000000000000000 ) ) ;
#116 = PLANE ( 'NONE',  #44 ) ;
#117 = CARTESIAN_POINT ( 'NONE',  ( -7.500000000000000000, -1.500000000000000700, 1000.000000000000000 ) ) ;
#118 = DIRECTION ( 'NONE',  ( -4.336808689942017700E-017, 1.000000000000000000, 0.0000000000000000000 ) ) ;
#119 = DIRECTION ( 'NONE',  ( -1.000000000000000000, -4.336808689942017700E-017, 0.0000000000000000000 ) ) ;
#120 = LINE ( 'NONE', #121, #18 ) ;
#121 = CARTESIAN_POINT ( 'NONE',  ( -7.500000000000000000, 1.500000000000000700, -1000.000000000000000 ) ) ;
#122 = DIRECTION ( 'NONE',  ( -1.000000000000000000, 4.336808689942017700E-017, -0.0000000000000000000 ) ) ;
#123 = PLANE ( 'NONE',  #41 ) ;
#124 = LINE ( 'NONE', #125, #14 ) ;
#125 = CARTESIAN_POINT ( 'NONE',  ( 7.500000000000000000, 1.500000000000000000, 1000.000000000000000 ) ) ;
#126 = DIRECTION ( 'NONE',  ( -0.0000000000000000000, -0.0000000000000000000, -1.000000000000000000 ) ) ;
#127 = LINE ( 'NONE', #128, #6 ) ;
#128 = CARTESIAN_POINT ( 'NONE',  ( 7.500000000000000000, 1.500000000000000000, -1000.000000000000000 ) ) ;
#129 = DIRECTION ( 'NONE',  ( -0.0000000000000000000, 1.000000000000000000, -0.0000000000000000000 ) ) ;
#130 = LINE ( 'NONE', #131, #2 ) ;
#131 = CARTESIAN_POINT ( 'NONE',  ( -7.500000000000000000, 1.500000000000000700, -1000.000000000000000 ) ) ;
#132 = DIRECTION ( 'NONE',  ( 0.0000000000000000000, -1.000000000000000000, 0.0000000000000000000 ) ) ;
#133 = CARTESIAN_POINT ( 'NONE',  ( 0.0000000000000000000, 0.0000000000000000000, 1000.000000000000000 ) ) ;
#134 = DIRECTION ( 'NONE',  ( -0.0000000000000000000, 0.0000000000000000000, 1.000000000000000000 ) ) ;
#135 = DIRECTION ( 'NONE',  ( 1.000000000000000000, 0.0000000000000000000, 0.0000000000000000000 ) ) ;
#136 = PLANE ( 'NONE',  #25 ) ;
#137 = CARTESIAN_POINT ( 'NONE',  ( 0.0000000000000000000, 0.0000000000000000000, -1000.000000000000000 ) ) ;
#138 = DIRECTION ( 'NONE',  ( -0.0000000000000000000, 0.0000000000000000000, 1.000000000000000000 ) ) ;
#139 = DIRECTION ( 'NONE',  ( 1.000000000000000000, 0.0000000000000000000, 0.0000000000000000000 ) ) ;
#140 = LINE ( 'NONE', #141, #10 ) ;
#141 = CARTESIAN_POINT ( 'NONE',  ( 7.500000000000000000, 1.500000000000000000, 1000.000000000000000 ) ) ;
#142 = DIRECTION ( 'NONE',  ( -0.0000000000000000000, 1.000000000000000000, -0.0000000000000000000 ) ) ;
#143 = PLANE ( 'NONE',  #4 ) ;
#144 = CARTESIAN_POINT ( 'NONE',  ( 7.500000000000000000, 1.500000000000000000, 1000.000000000000000 ) ) ;
#145 = LINE ( 'NONE', #146, #9 ) ;
#146 = CARTESIAN_POINT ( 'NONE',  ( -7.500000000000000000, -1.500000000000000700, -1000.000000000000000 ) ) ;
#147 = CARTESIAN_POINT ( 'NONE',  ( -7.500000000000000000, 1.500000000000000700, 1000.000000000000000 ) ) ;
#148 = LINE ( 'NONE', #152, #36 ) ;
#149 = DIRECTION ( 'NONE',  ( -0.0000000000000000000, -0.0000000000000000000, -1.000000000000000000 ) ) ;
#150 = DIRECTION ( 'NONE',  ( -0.0000000000000000000, -0.0000000000000000000, -1.000000000000000000 ) ) ;
#151 = CARTESIAN_POINT ( 'NONE',  ( -7.500000000000000000, 1.500000000000000700, 1000.000000000000000 ) ) ;
#152 = CARTESIAN_POINT ( 'NONE',  ( -7.500000000000000000, -1.500000000000000700, 1000.000000000000000 ) ) ;
#153 = LINE ( 'NONE', #151, #11 ) ;
#154 = DIRECTION ( 'NONE',  ( 1.000000000000000000, 4.336808689942017700E-017, 0.0000000000000000000 ) ) ;
#155 = DIRECTION ( 'NONE',  ( -1.000000000000000000, 4.336808689942017700E-017, -0.0000000000000000000 ) ) ;
#156 = LINE ( 'NONE', #147, #27 ) ;
#157 = LINE ( 'NONE', #158, #28 ) ;
#158 = CARTESIAN_POINT ( 'NONE',  ( 7.500000000000000000, -1.500000000000000000, 1000.000000000000000 ) ) ;
#159 = ORIENTED_EDGE ( 'NONE', *, *, #81, .F. ) ;
#160 = ORIENTED_EDGE ( 'NONE', *, *, #82, .T. ) ;
#161 = ORIENTED_EDGE ( 'NONE', *, *, #80, .T. ) ;
#162 = ORIENTED_EDGE ( 'NONE', *, *, #75, .T. ) ;
#163 = DIRECTION ( 'NONE',  ( -0.0000000000000000000, -0.0000000000000000000, -1.000000000000000000 ) ) ;
#164 = ORIENTED_EDGE ( 'NONE', *, *, #84, .F. ) ;
#165 = ORIENTED_EDGE ( 'NONE', *, *, #87, .T. ) ;
#166 = ORIENTED_EDGE ( 'NONE', *, *, #66, .F. ) ;
#167 = ORIENTED_EDGE ( 'NONE', *, *, #87, .F. ) ;
#168 = ORIENTED_EDGE ( 'NONE', *, *, #83, .F. ) ;
#169 = ORIENTED_EDGE ( 'NONE', *, *, #84, .T. ) ;
#170 = ORIENTED_EDGE ( 'NONE', *, *, #76, .T. ) ;
#171 = ORIENTED_EDGE ( 'NONE', *, *, #81, .T. ) ;
#172 = ORIENTED_EDGE ( 'NONE', *, *, #83, .T. ) ;
#173 = ORIENTED_EDGE ( 'NONE', *, *, #75, .F. ) ;
#174 = ORIENTED_EDGE ( 'NONE', *, *, #80, .F. ) ;
#175 = ORIENTED_EDGE ( 'NONE', *, *, #85, .F. ) ;
#176 = ORIENTED_EDGE ( 'NONE', *, *, #74, .T. ) ;
#177 = ORIENTED_EDGE ( 'NONE', *, *, #82, .F. ) ;
#178 = DIRECTION ( 'NONE',  ( 0.0000000000000000000, 0.0000000000000000000, 1.000000000000000000 ) ) ;
#179 = DIRECTION ( 'NONE',  ( -1.000000000000000000, 0.0000000000000000000, 0.0000000000000000000 ) ) ;
#180 = LINE ( 'NONE', #181, #3 ) ;
#181 = CARTESIAN_POINT ( 'NONE',  ( -7.500000000000000000, -1.500000000000000700, 1000.000000000000000 ) ) ;
#182 = DIRECTION ( 'NONE',  ( 1.000000000000000000, 4.336808689942017700E-017, 0.0000000000000000000 ) ) ;
#183 = PLANE ( 'NONE',  #45 ) ;
#184 = CARTESIAN_POINT ( 'NONE',  ( -7.500000000000000000, 1.500000000000000700, 1000.000000000000000 ) ) ;
#185 = DIRECTION ( 'NONE',  ( 1.000000000000000000, 0.0000000000000000000, -0.0000000000000000000 ) ) ;
#186 = DIRECTION ( 'NONE',  ( -0.0000000000000000000, 0.0000000000000000000, -1.000000000000000000 ) ) ;
#187 = CARTESIAN_POINT ( 'NONE',  ( -7.500000000000000000, -1.500000000000000700, -1000.000000000000000 ) ) ;
#188 = CARTESIAN_POINT ( 'NONE',  ( -7.500000000000000000, 1.500000000000000700, -1000.000000000000000 ) ) ;
#189 = CARTESIAN_POINT ( 'NONE',  ( 7.500000000000000000, 1.500000000000000000, 1000.000000000000000 ) ) ;
#190 = CARTESIAN_POINT ( 'NONE',  ( 7.500000000000000000, -1.500000000000000000, 1000.000000000000000 ) ) ;
#191 = CARTESIAN_POINT ( 'NONE',  ( 7.500000000000000000, 1.500000000000000000, -1000.000000000000000 ) ) ;
#192 = CARTESIAN_POINT ( 'NONE',  ( -7.500000000000000000, 1.500000000000000700, 1000.000000000000000 ) ) ;
#193 = CARTESIAN_POINT ( 'NONE',  ( 7.500000000000000000, -1.500000000000000000, -1000.000000000000000 ) ) ;
#194 = CARTESIAN_POINT ( 'NONE',  ( -7.500000000000000000, -1.500000000000000700, 1000.000000000000000 ) ) ;
#195 =( LENGTH_UNIT ( ) NAMED_UNIT ( * ) SI_UNIT ( .MILLI., .METRE. ) );
#196 =( NAMED_UNIT ( * ) PLANE_ANGLE_UNIT ( ) SI_UNIT ( $, .RADIAN. ) );
#197 =( NAMED_UNIT ( * ) SI_UNIT ( $, .STERADIAN. ) SOLID_ANGLE_UNIT ( ) );
#198 = APPLICATION_PROTOCOL_DEFINITION ( 'international standard', 'config_control_design', 1994, #49 ) ;
#199 = CARTESIAN_POINT ( 'NONE',  ( 0.0000000000000000000, 0.0000000000000000000, 0.0000000000000000000 ) ) ;
#200 = DIRECTION ( 'NONE',  ( 0.0000000000000000000, 0.0000000000000000000, 1.000000000000000000 ) ) ;
#201 = DIRECTION ( 'NONE',  ( 1.000000000000000000, 0.0000000000000000000, 0.0000000000000000000 ) ) ;
#202 = SHAPE_DEFINITION_REPRESENTATION ( #236, #50 ) ;
#203 = MECHANICAL_CONTEXT ( 'NONE', #49, 'mechanical' ) ;
#204 = PERSON_AND_ORGANIZATION ( #51, #26 ) ;
#205 = PERSON_AND_ORGANIZATION_ROLE ( 'design_owner' ) ;
#206 = APPLICATION_PROTOCOL_DEFINITION ( 'international standard', 'config_control_design', 1994, #48 ) ;
#207 = PERSON_AND_ORGANIZATION ( #51, #26 ) ;
#208 = APPROVAL_STATUS ( 'not_yet_approved' ) ;
#209 = APPROVAL_ROLE ( '' ) ;
#210 = DATE_AND_TIME ( #22, #58 ) ;
#211 = APPROVAL_DATE_TIME ( #210, #70 ) ;
#212 = PERSON_AND_ORGANIZATION ( #51, #26 ) ;
#213 = PERSON_AND_ORGANIZATION_ROLE ( 'creator' ) ;
#214 = DATE_AND_TIME ( #12, #61 ) ;
#215 = DATE_TIME_ROLE ( 'creation_date' ) ;
#216 = PERSON_AND_ORGANIZATION ( #51, #26 ) ;
#217 = APPROVAL_STATUS ( 'not_yet_approved' ) ;
#218 = APPROVAL_ROLE ( '' ) ;
#219 = DATE_AND_TIME ( #34, #64 ) ;
#220 = APPROVAL_DATE_TIME ( #219, #63 ) ;
#221 = PERSON_AND_ORGANIZATION ( #51, #26 ) ;
#222 = PERSON_AND_ORGANIZATION_ROLE ( 'creator' ) ;
#223 = PERSON_AND_ORGANIZATION ( #51, #26 ) ;
#224 = PERSON_AND_ORGANIZATION_ROLE ( 'design_supplier' ) ;
#225 = SECURITY_CLASSIFICATION_LEVEL ( 'unclassified' ) ;
#226 = PERSON_AND_ORGANIZATION ( #51, #26 ) ;
#227 = PERSON_AND_ORGANIZATION_ROLE ( 'classification_officer' ) ;
#228 = DATE_AND_TIME ( #40, #62 ) ;
#229 = DATE_TIME_ROLE ( 'classification_date' ) ;
#230 = PERSON_AND_ORGANIZATION ( #51, #26 ) ;
#231 = APPROVAL_STATUS ( 'not_yet_approved' ) ;
#232 = APPROVAL_ROLE ( '' ) ;
#233 = DATE_AND_TIME ( #24, #67 ) ;
#234 = APPROVAL_DATE_TIME ( #233, #69 ) ;
#235 = MANIFOLD_SOLID_BREP ( 'ÎÞ½ - µoµ1', #42 ) ;
#236 = PRODUCT_DEFINITION_SHAPE ( 'NONE', 'NONE',  #55 ) ;
#237 = DESIGN_CONTEXT ( 'detailed design', #48, 'design' ) ;
ENDSEC;
END-ISO-10303-21;
