ISO-10303-21;
HEADER;
FILE_DESCRIPTION (( 'STEP AP203' ),
    '1' );
FILE_NAME ('ª®3D.STEP',
    '2013-05-09T05:36:03',
    ( '11sw' ),
    ( '^LQ»¢®ïÐ' ),
    'SwSTEP 2.0',
    'SolidWorks 2012',
    '' );
FILE_SCHEMA (( 'CONFIG_CONTROL_DESIGN' ));
ENDSEC;

DATA;
#1 = CALENDAR_DATE ( 2013, 9, 5 ) ;
#2 = VECTOR ( 'NONE', #92, 1000.000000000000000 ) ;
#3 = FACE_OUTER_BOUND ( 'NONE', #140, .T. ) ;
#4 = VECTOR ( 'NONE', #100, 1000.000000000000000 ) ;
#5 = CC_DESIGN_APPROVAL ( #68, ( #28 ) ) ;
#6 = VECTOR ( 'NONE', #154, 1000.000000000000000 ) ;
#7 = COORDINATED_UNIVERSAL_TIME_OFFSET ( 9, 0, .AHEAD. ) ;
#8 = FACE_OUTER_BOUND ( 'NONE', #141, .T. ) ;
#9 = VECTOR ( 'NONE', #120, 1000.000000000000000 ) ;
#10 = VECTOR ( 'NONE', #95, 1000.000000000000000 ) ;
#11 = AXIS2_PLACEMENT_3D ( 'NONE', #199, #200, #201 ) ;
#12 = COORDINATED_UNIVERSAL_TIME_OFFSET ( 9, 0, .AHEAD. ) ;
#13 = APPROVAL_PERSON_ORGANIZATION ( #230, #55, #232 ) ;
#14 = AXIS2_PLACEMENT_3D ( 'NONE', #91, #90, #89 ) ;
#15 = APPROVAL_PERSON_ORGANIZATION ( #207, #65, #209 ) ;
#16 = COORDINATED_UNIVERSAL_TIME_OFFSET ( 9, 0, .AHEAD. ) ;
#17 = AXIS2_PLACEMENT_3D ( 'NONE', #167, #168, #169 ) ;
#18 = COORDINATED_UNIVERSAL_TIME_OFFSET ( 9, 0, .AHEAD. ) ;
#19 = VECTOR ( 'NONE', #178, 1000.000000000000000 ) ;
#20 = VECTOR ( 'NONE', #161, 1000.000000000000000 ) ;
#21 = ORGANIZATION ( 'UNSPECIFIED', 'UNSPECIFIED', '' ) ;
#22 = VECTOR ( 'NONE', #166, 1000.000000000000000 ) ;
#23 = CLOSED_SHELL ( 'NONE', ( #88, #81, #78, #76, #61, #82 ) ) ;
#24 = SECURITY_CLASSIFICATION ( '', '', #225 ) ;
#25 = AXIS2_PLACEMENT_3D ( 'NONE', #173, #174, #175 ) ;
#26 = CALENDAR_DATE ( 2013, 9, 5 ) ;
#27 = AXIS2_PLACEMENT_3D ( 'NONE', #179, #186, #180 ) ;
#28 = PRODUCT_DEFINITION_FORMATION_WITH_SPECIFIED_SOURCE ( 'ANY', '', #53, .NOT_KNOWN. ) ;
#29 = FACE_OUTER_BOUND ( 'NONE', #136, .T. ) ;
#30 = CALENDAR_DATE ( 2013, 9, 5 ) ;
#31 = AXIS2_PLACEMENT_3D ( 'NONE', #143, #144, #145 ) ;
#32 = FACE_OUTER_BOUND ( 'NONE', #138, .T. ) ;
#33 = VECTOR ( 'NONE', #182, 1000.000000000000000 ) ;
#34 = CC_DESIGN_APPROVAL ( #65, ( #63 ) ) ;
#35 = VECTOR ( 'NONE', #98, 1000.000000000000000 ) ;
#36 = CALENDAR_DATE ( 2013, 9, 5 ) ;
#37 = FACE_OUTER_BOUND ( 'NONE', #139, .T. ) ;
#38 = APPROVAL_PERSON_ORGANIZATION ( #216, #68, #218 ) ;
#39 = FACE_OUTER_BOUND ( 'NONE', #137, .T. ) ;
#40 = CC_DESIGN_APPROVAL ( #55, ( #24 ) ) ;
#41 = VECTOR ( 'NONE', #163, 1000.000000000000000 ) ;
#42 = COORDINATED_UNIVERSAL_TIME_OFFSET ( 9, 0, .AHEAD. ) ;
#43 = CC_DESIGN_SECURITY_CLASSIFICATION ( #24, ( #28 ) ) ;
#44 = VECTOR ( 'NONE', #158, 1000.000000000000000 ) ;
#45 = CALENDAR_DATE ( 2013, 9, 5 ) ;
#46 = AXIS2_PLACEMENT_3D ( 'NONE', #187, #188, #189 ) ;
#47 =( GEOMETRIC_REPRESENTATION_CONTEXT ( 3 ) GLOBAL_UNCERTAINTY_ASSIGNED_CONTEXT ( ( #236 ) ) GLOBAL_UNIT_ASSIGNED_CONTEXT ( ( #195, #196, #197 ) ) REPRESENTATION_CONTEXT ( 'NONE', 'WORKASPACE' ) );
#48 = DESIGN_CONTEXT ( 'detailed design', #51, 'design' ) ;
#49 = MANIFOLD_SOLID_BREP ( 'ÎÞ½ - µoµ1', #23 ) ;
#50 = PRODUCT_DEFINITION_SHAPE ( 'NONE', 'NONE',  #63 ) ;
#51 = APPLICATION_CONTEXT ( 'configuration controlled 3d designs of mechanical parts and assemblies' ) ;
#52 = APPLICATION_CONTEXT ( 'configuration controlled 3d designs of mechanical parts and assemblies' ) ;
#53 = PRODUCT ( 'ª®3D', 'ª®3D', '', ( #203 ) ) ;
#54 = LOCAL_TIME ( 14, 36, 3.000000000000000000, #18 ) ;
#55 = APPROVAL ( #231, 'UNSPECIFIED' ) ;
#56 = CC_DESIGN_DATE_AND_TIME_ASSIGNMENT ( #228, #229, ( #24 ) ) ;
#57 = LOCAL_TIME ( 14, 36, 3.000000000000000000, #42 ) ;
#58 = CC_DESIGN_PERSON_AND_ORGANIZATION_ASSIGNMENT ( #226, #227, ( #24 ) ) ;
#59 = CC_DESIGN_PERSON_AND_ORGANIZATION_ASSIGNMENT ( #223, #224, ( #28 ) ) ;
#60 = CC_DESIGN_PERSON_AND_ORGANIZATION_ASSIGNMENT ( #221, #222, ( #28 ) ) ;
#61 = ADVANCED_FACE ( 'NONE', ( #3 ), #142, .T. ) ;
#62 = PRODUCT_RELATED_PRODUCT_CATEGORY ( 'detail', '', ( #53 ) ) ;
#63 = PRODUCT_DEFINITION ( 'UNKNOWN', '', #28, #48 ) ;
#64 = LOCAL_TIME ( 14, 36, 3.000000000000000000, #12 ) ;
#65 = APPROVAL ( #208, 'UNSPECIFIED' ) ;
#66 = LOCAL_TIME ( 14, 36, 3.000000000000000000, #7 ) ;
#67 = CC_DESIGN_DATE_AND_TIME_ASSIGNMENT ( #214, #215, ( #63 ) ) ;
#68 = APPROVAL ( #217, 'UNSPECIFIED' ) ;
#69 = LOCAL_TIME ( 14, 36, 3.000000000000000000, #16 ) ;
#70 = EDGE_CURVE ( 'NONE', #133, #135, #150, .T. ) ;
#71 = CC_DESIGN_PERSON_AND_ORGANIZATION_ASSIGNMENT ( #204, #205, ( #53 ) ) ;
#72 = EDGE_CURVE ( 'NONE', #130, #135, #156, .T. ) ;
#73 = CC_DESIGN_PERSON_AND_ORGANIZATION_ASSIGNMENT ( #212, #213, ( #63 ) ) ;
#74 = EDGE_CURVE ( 'NONE', #131, #134, #157, .T. ) ;
#75 = EDGE_CURVE ( 'NONE', #132, #133, #164, .T. ) ;
#76 = ADVANCED_FACE ( 'NONE', ( #8 ), #155, .F. ) ;
#77 = EDGE_CURVE ( 'NONE', #130, #128, #170, .T. ) ;
#78 = ADVANCED_FACE ( 'NONE', ( #32 ), #172, .F. ) ;
#79 = EDGE_CURVE ( 'NONE', #131, #132, #176, .T. ) ;
#80 = EDGE_CURVE ( 'NONE', #134, #130, #185, .T. ) ;
#81 = ADVANCED_FACE ( 'NONE', ( #29 ), #184, .F. ) ;
#82 = ADVANCED_FACE ( 'NONE', ( #39 ), #190, .F. ) ;
#83 = EDGE_CURVE ( 'NONE', #135, #129, #151, .T. ) ;
#84 = EDGE_CURVE ( 'NONE', #134, #133, #149, .T. ) ;
#85 = EDGE_CURVE ( 'NONE', #129, #132, #101, .T. ) ;
#86 = EDGE_CURVE ( 'NONE', #128, #129, #97, .T. ) ;
#87 = EDGE_CURVE ( 'NONE', #128, #131, #94, .T. ) ;
#88 = ADVANCED_FACE ( 'NONE', ( #37 ), #183, .F. ) ;
#89 = DIRECTION ( 'NONE',  ( -0.0000000000000000000, 0.0000000000000000000, -1.000000000000000000 ) ) ;
#90 = DIRECTION ( 'NONE',  ( 1.000000000000000000, 0.0000000000000000000, -0.0000000000000000000 ) ) ;
#91 = CARTESIAN_POINT ( 'NONE',  ( -5.000000000000000000, 1.500000000000000400, 1000.000000000000000 ) ) ;
#92 = DIRECTION ( 'NONE',  ( 1.000000000000000000, 8.673617379884035500E-017, 0.0000000000000000000 ) ) ;
#93 = CARTESIAN_POINT ( 'NONE',  ( -5.000000000000000000, -1.500000000000000400, 1000.000000000000000 ) ) ;
#94 = LINE ( 'NONE', #93, #2 ) ;
#95 = DIRECTION ( 'NONE',  ( -0.0000000000000000000, -0.0000000000000000000, -1.000000000000000000 ) ) ;
#96 = CARTESIAN_POINT ( 'NONE',  ( -5.000000000000000000, -1.500000000000000400, 1000.000000000000000 ) ) ;
#97 = LINE ( 'NONE', #96, #10 ) ;
#98 = DIRECTION ( 'NONE',  ( 1.000000000000000000, 8.673617379884035500E-017, 0.0000000000000000000 ) ) ;
#99 = CARTESIAN_POINT ( 'NONE',  ( -5.000000000000000000, -1.500000000000000400, -1000.000000000000000 ) ) ;
#100 = DIRECTION ( 'NONE',  ( -0.0000000000000000000, -0.0000000000000000000, -1.000000000000000000 ) ) ;
#101 = LINE ( 'NONE', #99, #35 ) ;
#102 = ORIENTED_EDGE ( 'NONE', *, *, #75, .F. ) ;
#103 = ORIENTED_EDGE ( 'NONE', *, *, #70, .F. ) ;
#104 = ORIENTED_EDGE ( 'NONE', *, *, #83, .F. ) ;
#105 = ORIENTED_EDGE ( 'NONE', *, *, #85, .F. ) ;
#106 = ORIENTED_EDGE ( 'NONE', *, *, #74, .T. ) ;
#107 = ORIENTED_EDGE ( 'NONE', *, *, #87, .T. ) ;
#108 = ORIENTED_EDGE ( 'NONE', *, *, #77, .T. ) ;
#109 = ORIENTED_EDGE ( 'NONE', *, *, #84, .T. ) ;
#110 = ORIENTED_EDGE ( 'NONE', *, *, #80, .T. ) ;
#111 = ORIENTED_EDGE ( 'NONE', *, *, #72, .F. ) ;
#112 = ORIENTED_EDGE ( 'NONE', *, *, #80, .F. ) ;
#113 = ORIENTED_EDGE ( 'NONE', *, *, #70, .T. ) ;
#114 = ORIENTED_EDGE ( 'NONE', *, *, #79, .T. ) ;
#115 = ORIENTED_EDGE ( 'NONE', *, *, #74, .F. ) ;
#116 = ORIENTED_EDGE ( 'NONE', *, *, #84, .F. ) ;
#117 = ORIENTED_EDGE ( 'NONE', *, *, #85, .T. ) ;
#118 = ORIENTED_EDGE ( 'NONE', *, *, #75, .T. ) ;
#119 = CARTESIAN_POINT ( 'NONE',  ( -5.000000000000000000, 1.500000000000000400, 1000.000000000000000 ) ) ;
#120 = DIRECTION ( 'NONE',  ( -1.000000000000000000, 8.673617379884035500E-017, -0.0000000000000000000 ) ) ;
#121 = ORIENTED_EDGE ( 'NONE', *, *, #86, .T. ) ;
#122 = ORIENTED_EDGE ( 'NONE', *, *, #83, .T. ) ;
#123 = ORIENTED_EDGE ( 'NONE', *, *, #87, .F. ) ;
#124 = ORIENTED_EDGE ( 'NONE', *, *, #86, .F. ) ;
#125 = ORIENTED_EDGE ( 'NONE', *, *, #79, .F. ) ;
#126 = ORIENTED_EDGE ( 'NONE', *, *, #77, .F. ) ;
#127 = ORIENTED_EDGE ( 'NONE', *, *, #72, .T. ) ;
#128 = VERTEX_POINT ( 'NONE', #146 ) ;
#129 = VERTEX_POINT ( 'NONE', #147 ) ;
#130 = VERTEX_POINT ( 'NONE', #148 ) ;
#131 = VERTEX_POINT ( 'NONE', #159 ) ;
#132 = VERTEX_POINT ( 'NONE', #191 ) ;
#133 = VERTEX_POINT ( 'NONE', #192 ) ;
#134 = VERTEX_POINT ( 'NONE', #193 ) ;
#135 = VERTEX_POINT ( 'NONE', #194 ) ;
#136 = EDGE_LOOP ( 'NONE', ( #117, #125, #123, #121 ) ) ;
#137 = EDGE_LOOP ( 'NONE', ( #104, #103, #102, #105 ) ) ;
#138 = EDGE_LOOP ( 'NONE', ( #118, #116, #115, #114 ) ) ;
#139 = EDGE_LOOP ( 'NONE', ( #122, #124, #126, #127 ) ) ;
#140 = EDGE_LOOP ( 'NONE', ( #108, #107, #106, #110 ) ) ;
#141 = EDGE_LOOP ( 'NONE', ( #113, #111, #112, #109 ) ) ;
#142 = PLANE ( 'NONE',  #31 ) ;
#143 = CARTESIAN_POINT ( 'NONE',  ( 0.0000000000000000000, 0.0000000000000000000, 1000.000000000000000 ) ) ;
#144 = DIRECTION ( 'NONE',  ( -0.0000000000000000000, 0.0000000000000000000, 1.000000000000000000 ) ) ;
#145 = DIRECTION ( 'NONE',  ( 1.000000000000000000, 0.0000000000000000000, 0.0000000000000000000 ) ) ;
#146 = CARTESIAN_POINT ( 'NONE',  ( -5.000000000000000000, -1.500000000000000400, 1000.000000000000000 ) ) ;
#147 = CARTESIAN_POINT ( 'NONE',  ( -5.000000000000000000, -1.500000000000000400, -1000.000000000000000 ) ) ;
#148 = CARTESIAN_POINT ( 'NONE',  ( -5.000000000000000000, 1.500000000000000400, 1000.000000000000000 ) ) ;
#149 = LINE ( 'NONE', #152, #4 ) ;
#150 = LINE ( 'NONE', #153, #6 ) ;
#151 = LINE ( 'NONE', #181, #33 ) ;
#152 = CARTESIAN_POINT ( 'NONE',  ( 5.000000000000000000, 1.499999999999999600, 1000.000000000000000 ) ) ;
#153 = CARTESIAN_POINT ( 'NONE',  ( -5.000000000000000000, 1.500000000000000400, -1000.000000000000000 ) ) ;
#154 = DIRECTION ( 'NONE',  ( -1.000000000000000000, 8.673617379884035500E-017, -0.0000000000000000000 ) ) ;
#155 = PLANE ( 'NONE',  #17 ) ;
#156 = LINE ( 'NONE', #160, #20 ) ;
#157 = LINE ( 'NONE', #162, #41 ) ;
#158 = DIRECTION ( 'NONE',  ( 0.0000000000000000000, -1.000000000000000000, 0.0000000000000000000 ) ) ;
#159 = CARTESIAN_POINT ( 'NONE',  ( 5.000000000000000000, -1.499999999999999600, 1000.000000000000000 ) ) ;
#160 = CARTESIAN_POINT ( 'NONE',  ( -5.000000000000000000, 1.500000000000000400, 1000.000000000000000 ) ) ;
#161 = DIRECTION ( 'NONE',  ( -0.0000000000000000000, -0.0000000000000000000, -1.000000000000000000 ) ) ;
#162 = CARTESIAN_POINT ( 'NONE',  ( 5.000000000000000000, 1.499999999999999600, 1000.000000000000000 ) ) ;
#163 = DIRECTION ( 'NONE',  ( -0.0000000000000000000, 1.000000000000000000, -0.0000000000000000000 ) ) ;
#164 = LINE ( 'NONE', #165, #22 ) ;
#165 = CARTESIAN_POINT ( 'NONE',  ( 5.000000000000000000, 1.499999999999999600, -1000.000000000000000 ) ) ;
#166 = DIRECTION ( 'NONE',  ( -0.0000000000000000000, 1.000000000000000000, -0.0000000000000000000 ) ) ;
#167 = CARTESIAN_POINT ( 'NONE',  ( -5.000000000000000000, 1.500000000000000400, 1000.000000000000000 ) ) ;
#168 = DIRECTION ( 'NONE',  ( -8.673617379884035500E-017, -1.000000000000000000, 0.0000000000000000000 ) ) ;
#169 = DIRECTION ( 'NONE',  ( 1.000000000000000000, -8.673617379884035500E-017, 0.0000000000000000000 ) ) ;
#170 = LINE ( 'NONE', #171, #44 ) ;
#171 = CARTESIAN_POINT ( 'NONE',  ( -5.000000000000000000, 1.500000000000000400, 1000.000000000000000 ) ) ;
#172 = PLANE ( 'NONE',  #25 ) ;
#173 = CARTESIAN_POINT ( 'NONE',  ( 5.000000000000000000, 1.499999999999999600, 1000.000000000000000 ) ) ;
#174 = DIRECTION ( 'NONE',  ( -1.000000000000000000, 0.0000000000000000000, 0.0000000000000000000 ) ) ;
#175 = DIRECTION ( 'NONE',  ( 0.0000000000000000000, 0.0000000000000000000, 1.000000000000000000 ) ) ;
#176 = LINE ( 'NONE', #177, #19 ) ;
#177 = CARTESIAN_POINT ( 'NONE',  ( 5.000000000000000000, -1.499999999999999600, 1000.000000000000000 ) ) ;
#178 = DIRECTION ( 'NONE',  ( -0.0000000000000000000, -0.0000000000000000000, -1.000000000000000000 ) ) ;
#179 = CARTESIAN_POINT ( 'NONE',  ( 0.0000000000000000000, 0.0000000000000000000, -1000.000000000000000 ) ) ;
#180 = DIRECTION ( 'NONE',  ( 1.000000000000000000, 0.0000000000000000000, 0.0000000000000000000 ) ) ;
#181 = CARTESIAN_POINT ( 'NONE',  ( -5.000000000000000000, 1.500000000000000400, -1000.000000000000000 ) ) ;
#182 = DIRECTION ( 'NONE',  ( 0.0000000000000000000, -1.000000000000000000, 0.0000000000000000000 ) ) ;
#183 = PLANE ( 'NONE',  #14 ) ;
#184 = PLANE ( 'NONE',  #46 ) ;
#185 = LINE ( 'NONE', #119, #9 ) ;
#186 = DIRECTION ( 'NONE',  ( -0.0000000000000000000, 0.0000000000000000000, 1.000000000000000000 ) ) ;
#187 = CARTESIAN_POINT ( 'NONE',  ( -5.000000000000000000, -1.500000000000000400, 1000.000000000000000 ) ) ;
#188 = DIRECTION ( 'NONE',  ( -8.673617379884035500E-017, 1.000000000000000000, 0.0000000000000000000 ) ) ;
#189 = DIRECTION ( 'NONE',  ( -1.000000000000000000, -8.673617379884035500E-017, 0.0000000000000000000 ) ) ;
#190 = PLANE ( 'NONE',  #27 ) ;
#191 = CARTESIAN_POINT ( 'NONE',  ( 5.000000000000000000, -1.499999999999999600, -1000.000000000000000 ) ) ;
#192 = CARTESIAN_POINT ( 'NONE',  ( 5.000000000000000000, 1.499999999999999600, -1000.000000000000000 ) ) ;
#193 = CARTESIAN_POINT ( 'NONE',  ( 5.000000000000000000, 1.499999999999999600, 1000.000000000000000 ) ) ;
#194 = CARTESIAN_POINT ( 'NONE',  ( -5.000000000000000000, 1.500000000000000400, -1000.000000000000000 ) ) ;
#195 =( LENGTH_UNIT ( ) NAMED_UNIT ( * ) SI_UNIT ( .MILLI., .METRE. ) );
#196 =( NAMED_UNIT ( * ) PLANE_ANGLE_UNIT ( ) SI_UNIT ( $, .RADIAN. ) );
#197 =( NAMED_UNIT ( * ) SI_UNIT ( $, .STERADIAN. ) SOLID_ANGLE_UNIT ( ) );
#198 = APPLICATION_PROTOCOL_DEFINITION ( 'international standard', 'config_control_design', 1994, #52 ) ;
#199 = CARTESIAN_POINT ( 'NONE',  ( 0.0000000000000000000, 0.0000000000000000000, 0.0000000000000000000 ) ) ;
#200 = DIRECTION ( 'NONE',  ( 0.0000000000000000000, 0.0000000000000000000, 1.000000000000000000 ) ) ;
#201 = DIRECTION ( 'NONE',  ( 1.000000000000000000, 0.0000000000000000000, 0.0000000000000000000 ) ) ;
#202 = SHAPE_DEFINITION_REPRESENTATION ( #50, #237 ) ;
#203 = MECHANICAL_CONTEXT ( 'NONE', #52, 'mechanical' ) ;
#204 = PERSON_AND_ORGANIZATION ( #235, #21 ) ;
#205 = PERSON_AND_ORGANIZATION_ROLE ( 'design_owner' ) ;
#206 = APPLICATION_PROTOCOL_DEFINITION ( 'international standard', 'config_control_design', 1994, #51 ) ;
#207 = PERSON_AND_ORGANIZATION ( #235, #21 ) ;
#208 = APPROVAL_STATUS ( 'not_yet_approved' ) ;
#209 = APPROVAL_ROLE ( '' ) ;
#210 = DATE_AND_TIME ( #36, #66 ) ;
#211 = APPROVAL_DATE_TIME ( #210, #65 ) ;
#212 = PERSON_AND_ORGANIZATION ( #235, #21 ) ;
#213 = PERSON_AND_ORGANIZATION_ROLE ( 'creator' ) ;
#214 = DATE_AND_TIME ( #30, #64 ) ;
#215 = DATE_TIME_ROLE ( 'creation_date' ) ;
#216 = PERSON_AND_ORGANIZATION ( #235, #21 ) ;
#217 = APPROVAL_STATUS ( 'not_yet_approved' ) ;
#218 = APPROVAL_ROLE ( '' ) ;
#219 = DATE_AND_TIME ( #26, #69 ) ;
#220 = APPROVAL_DATE_TIME ( #219, #68 ) ;
#221 = PERSON_AND_ORGANIZATION ( #235, #21 ) ;
#222 = PERSON_AND_ORGANIZATION_ROLE ( 'creator' ) ;
#223 = PERSON_AND_ORGANIZATION ( #235, #21 ) ;
#224 = PERSON_AND_ORGANIZATION_ROLE ( 'design_supplier' ) ;
#225 = SECURITY_CLASSIFICATION_LEVEL ( 'unclassified' ) ;
#226 = PERSON_AND_ORGANIZATION ( #235, #21 ) ;
#227 = PERSON_AND_ORGANIZATION_ROLE ( 'classification_officer' ) ;
#228 = DATE_AND_TIME ( #45, #57 ) ;
#229 = DATE_TIME_ROLE ( 'classification_date' ) ;
#230 = PERSON_AND_ORGANIZATION ( #235, #21 ) ;
#231 = APPROVAL_STATUS ( 'not_yet_approved' ) ;
#232 = APPROVAL_ROLE ( '' ) ;
#233 = DATE_AND_TIME ( #1, #54 ) ;
#234 = APPROVAL_DATE_TIME ( #233, #55 ) ;
#235 = PERSON ( 'UNSPECIFIED', 'UNSPECIFIED', 'UNSPECIFIED', ('UNSPECIFIED'), ('UNSPECIFIED'), ('UNSPECIFIED') ) ;
#236 = UNCERTAINTY_MEASURE_WITH_UNIT (LENGTH_MEASURE( 1.000000000000000100E-005 ), #195, 'distance_accuracy_value', 'NONE');
#237 = ADVANCED_BREP_SHAPE_REPRESENTATION ( 'ª®3D', ( #49, #11 ), #47 ) ;
ENDSEC;
END-ISO-10303-21;
