ISO-10303-21;
HEADER;
FILE_DESCRIPTION (( 'STEP AP203' ),
    '1' );
FILE_NAME ('ª®3D.STEP',
    '2013-05-09T05:34:22',
    ( '11sw' ),
    ( '^LQ»¢®ïÐ' ),
    'SwSTEP 2.0',
    'SolidWorks 2012',
    '' );
FILE_SCHEMA (( 'CONFIG_CONTROL_DESIGN' ));
ENDSEC;

DATA;
#1 = COORDINATED_UNIVERSAL_TIME_OFFSET ( 9, 0, .AHEAD. ) ;
#2 = AXIS2_PLACEMENT_3D ( 'NONE', #97, #98, #99 ) ;
#3 = AXIS2_PLACEMENT_3D ( 'NONE', #235, #236, #231 ) ;
#4 = VECTOR ( 'NONE', #201, 1000.000000000000000 ) ;
#5 = SECURITY_CLASSIFICATION ( '', '', #138 ) ;
#6 = CC_DESIGN_APPROVAL ( #84, ( #32 ) ) ;
#7 = VECTOR ( 'NONE', #233, 1000.000000000000000 ) ;
#8 = VECTOR ( 'NONE', #228, 1000.000000000000000 ) ;
#9 = FACE_OUTER_BOUND ( 'NONE', #183, .T. ) ;
#10 = VECTOR ( 'NONE', #204, 1000.000000000000000 ) ;
#11 = VECTOR ( 'NONE', #198, 1000.000000000000000 ) ;
#12 = VECTOR ( 'NONE', #195, 1000.000000000000000 ) ;
#13 = VECTOR ( 'NONE', #207, 1000.000000000000000 ) ;
#14 = CC_DESIGN_SECURITY_CLASSIFICATION ( #5, ( #32 ) ) ;
#15 = CALENDAR_DATE ( 2013, 9, 5 ) ;
#16 = COORDINATED_UNIVERSAL_TIME_OFFSET ( 9, 0, .AHEAD. ) ;
#17 = AXIS2_PLACEMENT_3D ( 'NONE', #211, #212, #213 ) ;
#18 = APPROVAL_PERSON_ORGANIZATION ( #129, #84, #131 ) ;
#19 = CALENDAR_DATE ( 2013, 9, 5 ) ;
#20 = CALENDAR_DATE ( 2013, 9, 5 ) ;
#21 = AXIS2_PLACEMENT_3D ( 'NONE', #237, #227, #222 ) ;
#22 = CALENDAR_DATE ( 2013, 9, 5 ) ;
#23 = CC_DESIGN_APPROVAL ( #70, ( #5 ) ) ;
#24 = AXIS2_PLACEMENT_3D ( 'NONE', #215, #216, #217 ) ;
#25 = FACE_OUTER_BOUND ( 'NONE', #185, .T. ) ;
#26 = VECTOR ( 'NONE', #220, 1000.000000000000000 ) ;
#27 = CALENDAR_DATE ( 2013, 9, 5 ) ;
#28 = VECTOR ( 'NONE', #210, 1000.000000000000000 ) ;
#29 = FACE_OUTER_BOUND ( 'NONE', #182, .T. ) ;
#30 = AXIS2_PLACEMENT_3D ( 'NONE', #92, #94, #95 ) ;
#31 = COORDINATED_UNIVERSAL_TIME_OFFSET ( 9, 0, .AHEAD. ) ;
#32 = PRODUCT_DEFINITION_FORMATION_WITH_SPECIFIED_SOURCE ( 'ANY', '', #53, .NOT_KNOWN. ) ;
#33 = VECTOR ( 'NONE', #232, 1000.000000000000000 ) ;
#34 = COORDINATED_UNIVERSAL_TIME_OFFSET ( 9, 0, .AHEAD. ) ;
#35 = FACE_OUTER_BOUND ( 'NONE', #184, .T. ) ;
#36 = ORGANIZATION ( 'UNSPECIFIED', 'UNSPECIFIED', '' ) ;
#37 = COORDINATED_UNIVERSAL_TIME_OFFSET ( 9, 0, .AHEAD. ) ;
#38 = FACE_OUTER_BOUND ( 'NONE', #180, .T. ) ;
#39 = APPROVAL_PERSON_ORGANIZATION ( #143, #70, #145 ) ;
#40 = AXIS2_PLACEMENT_3D ( 'NONE', #112, #113, #114 ) ;
#41 = CC_DESIGN_APPROVAL ( #74, ( #87 ) ) ;
#42 = APPROVAL_PERSON_ORGANIZATION ( #120, #74, #122 ) ;
#43 = APPLICATION_CONTEXT ( 'configuration controlled 3d designs of mechanical parts and assemblies' ) ;
#44 = APPLICATION_CONTEXT ( 'configuration controlled 3d designs of mechanical parts and assemblies' ) ;
#45 =( GEOMETRIC_REPRESENTATION_CONTEXT ( 3 ) GLOBAL_UNCERTAINTY_ASSIGNED_CONTEXT ( ( #54 ) ) GLOBAL_UNIT_ASSIGNED_CONTEXT ( ( #108, #109, #110 ) ) REPRESENTATION_CONTEXT ( 'NONE', 'WORKASPACE' ) );
#46 = MANIFOLD_SOLID_BREP ( 'ÎÞ½ - µoµ1', #51 ) ;
#47 = DESIGN_CONTEXT ( 'detailed design', #44, 'design' ) ;
#48 = PRODUCT_DEFINITION_SHAPE ( 'NONE', 'NONE',  #87 ) ;
#49 = FACE_OUTER_BOUND ( 'NONE', #181, .T. ) ;
#50 = VECTOR ( 'NONE', #188, 1000.000000000000000 ) ;
#51 = CLOSED_SHELL ( 'NONE', ( #85, #73, #75, #91, #90, #89 ) ) ;
#52 = VECTOR ( 'NONE', #192, 1000.000000000000000 ) ;
#53 = PRODUCT ( 'ª®3D', 'ª®3D', '', ( #116 ) ) ;
#54 = UNCERTAINTY_MEASURE_WITH_UNIT (LENGTH_MEASURE( 1.000000000000000100E-005 ), #108, 'distance_accuracy_value', 'NONE');
#55 = PERSON ( 'UNSPECIFIED', 'UNSPECIFIED', 'UNSPECIFIED', ('UNSPECIFIED'), ('UNSPECIFIED'), ('UNSPECIFIED') ) ;
#56 = ADVANCED_BREP_SHAPE_REPRESENTATION ( 'ª®3D', ( #46, #40 ), #45 ) ;
#57 = EDGE_CURVE ( 'NONE', #148, #150, #186, .T. ) ;
#58 = EDGE_CURVE ( 'NONE', #155, #148, #190, .T. ) ;
#59 = EDGE_CURVE ( 'NONE', #154, #153, #193, .T. ) ;
#60 = EDGE_CURVE ( 'NONE', #150, #152, #196, .T. ) ;
#61 = EDGE_CURVE ( 'NONE', #155, #154, #199, .T. ) ;
#62 = EDGE_CURVE ( 'NONE', #149, #155, #202, .T. ) ;
#63 = LOCAL_TIME ( 14, 34, 22.00000000000000000, #31 ) ;
#64 = CC_DESIGN_PERSON_AND_ORGANIZATION_ASSIGNMENT ( #125, #126, ( #87 ) ) ;
#65 = EDGE_CURVE ( 'NONE', #148, #153, #205, .T. ) ;
#66 = LOCAL_TIME ( 14, 34, 22.00000000000000000, #34 ) ;
#67 = EDGE_CURVE ( 'NONE', #151, #154, #208, .T. ) ;
#68 = CC_DESIGN_PERSON_AND_ORGANIZATION_ASSIGNMENT ( #139, #140, ( #5 ) ) ;
#69 = CC_DESIGN_DATE_AND_TIME_ASSIGNMENT ( #141, #142, ( #5 ) ) ;
#70 = APPROVAL ( #144, 'UNSPECIFIED' ) ;
#71 = CC_DESIGN_PERSON_AND_ORGANIZATION_ASSIGNMENT ( #117, #118, ( #53 ) ) ;
#72 = LOCAL_TIME ( 14, 34, 22.00000000000000000, #1 ) ;
#73 = ADVANCED_FACE ( 'NONE', ( #49 ), #189, .F. ) ;
#74 = APPROVAL ( #121, 'UNSPECIFIED' ) ;
#75 = ADVANCED_FACE ( 'NONE', ( #9 ), #214, .F. ) ;
#76 = PRODUCT_RELATED_PRODUCT_CATEGORY ( 'detail', '', ( #53 ) ) ;
#77 = CC_DESIGN_PERSON_AND_ORGANIZATION_ASSIGNMENT ( #134, #135, ( #32 ) ) ;
#78 = LOCAL_TIME ( 14, 34, 22.00000000000000000, #16 ) ;
#79 = EDGE_CURVE ( 'NONE', #150, #149, #218, .T. ) ;
#80 = EDGE_CURVE ( 'NONE', #152, #151, #223, .T. ) ;
#81 = CC_DESIGN_DATE_AND_TIME_ASSIGNMENT ( #127, #128, ( #87 ) ) ;
#82 = EDGE_CURVE ( 'NONE', #149, #151, #234, .T. ) ;
#83 = CC_DESIGN_PERSON_AND_ORGANIZATION_ASSIGNMENT ( #136, #137, ( #32 ) ) ;
#84 = APPROVAL ( #130, 'UNSPECIFIED' ) ;
#85 = ADVANCED_FACE ( 'NONE', ( #29 ), #221, .F. ) ;
#86 = LOCAL_TIME ( 14, 34, 22.00000000000000000, #37 ) ;
#87 = PRODUCT_DEFINITION ( 'UNKNOWN', '', #32, #47 ) ;
#88 = EDGE_CURVE ( 'NONE', #153, #152, #229, .T. ) ;
#89 = ADVANCED_FACE ( 'NONE', ( #38 ), #230, .F. ) ;
#90 = ADVANCED_FACE ( 'NONE', ( #25 ), #93, .T. ) ;
#91 = ADVANCED_FACE ( 'NONE', ( #35 ), #96, .F. ) ;
#92 = CARTESIAN_POINT ( 'NONE',  ( 0.0000000000000000000, 0.0000000000000000000, 1000.000000000000000 ) ) ;
#93 = PLANE ( 'NONE',  #30 ) ;
#94 = DIRECTION ( 'NONE',  ( -0.0000000000000000000, 0.0000000000000000000, 1.000000000000000000 ) ) ;
#95 = DIRECTION ( 'NONE',  ( 1.000000000000000000, 0.0000000000000000000, 0.0000000000000000000 ) ) ;
#96 = PLANE ( 'NONE',  #2 ) ;
#97 = CARTESIAN_POINT ( 'NONE',  ( -9.999999999999998200, 7.500000000000000900, 1000.000000000000000 ) ) ;
#98 = DIRECTION ( 'NONE',  ( 0.0000000000000000000, -1.000000000000000000, 0.0000000000000000000 ) ) ;
#99 = DIRECTION ( 'NONE',  ( 0.0000000000000000000, -0.0000000000000000000, -1.000000000000000000 ) ) ;
#100 = CARTESIAN_POINT ( 'NONE',  ( 10.00000000000000200, 7.500000000000000900, 1000.000000000000000 ) ) ;
#101 = CARTESIAN_POINT ( 'NONE',  ( -9.999999999999998200, -7.500000000000000900, 1000.000000000000000 ) ) ;
#102 = CARTESIAN_POINT ( 'NONE',  ( -9.999999999999998200, 7.500000000000000900, 1000.000000000000000 ) ) ;
#103 = CARTESIAN_POINT ( 'NONE',  ( -9.999999999999998200, -7.500000000000000900, -1000.000000000000000 ) ) ;
#104 = CARTESIAN_POINT ( 'NONE',  ( -9.999999999999998200, 7.500000000000000900, -1000.000000000000000 ) ) ;
#105 = CARTESIAN_POINT ( 'NONE',  ( 10.00000000000000200, 7.500000000000000900, -1000.000000000000000 ) ) ;
#106 = CARTESIAN_POINT ( 'NONE',  ( 10.00000000000000400, -7.499999999999999100, -1000.000000000000000 ) ) ;
#107 = CARTESIAN_POINT ( 'NONE',  ( 10.00000000000000400, -7.499999999999999100, 1000.000000000000000 ) ) ;
#108 =( LENGTH_UNIT ( ) NAMED_UNIT ( * ) SI_UNIT ( .MILLI., .METRE. ) );
#109 =( NAMED_UNIT ( * ) PLANE_ANGLE_UNIT ( ) SI_UNIT ( $, .RADIAN. ) );
#110 =( NAMED_UNIT ( * ) SI_UNIT ( $, .STERADIAN. ) SOLID_ANGLE_UNIT ( ) );
#111 = APPLICATION_PROTOCOL_DEFINITION ( 'international standard', 'config_control_design', 1994, #43 ) ;
#112 = CARTESIAN_POINT ( 'NONE',  ( 0.0000000000000000000, 0.0000000000000000000, 0.0000000000000000000 ) ) ;
#113 = DIRECTION ( 'NONE',  ( 0.0000000000000000000, 0.0000000000000000000, 1.000000000000000000 ) ) ;
#114 = DIRECTION ( 'NONE',  ( 1.000000000000000000, 0.0000000000000000000, 0.0000000000000000000 ) ) ;
#115 = SHAPE_DEFINITION_REPRESENTATION ( #48, #56 ) ;
#116 = MECHANICAL_CONTEXT ( 'NONE', #43, 'mechanical' ) ;
#117 = PERSON_AND_ORGANIZATION ( #55, #36 ) ;
#118 = PERSON_AND_ORGANIZATION_ROLE ( 'design_owner' ) ;
#119 = APPLICATION_PROTOCOL_DEFINITION ( 'international standard', 'config_control_design', 1994, #44 ) ;
#120 = PERSON_AND_ORGANIZATION ( #55, #36 ) ;
#121 = APPROVAL_STATUS ( 'not_yet_approved' ) ;
#122 = APPROVAL_ROLE ( '' ) ;
#123 = DATE_AND_TIME ( #20, #66 ) ;
#124 = APPROVAL_DATE_TIME ( #123, #74 ) ;
#125 = PERSON_AND_ORGANIZATION ( #55, #36 ) ;
#126 = PERSON_AND_ORGANIZATION_ROLE ( 'creator' ) ;
#127 = DATE_AND_TIME ( #22, #86 ) ;
#128 = DATE_TIME_ROLE ( 'creation_date' ) ;
#129 = PERSON_AND_ORGANIZATION ( #55, #36 ) ;
#130 = APPROVAL_STATUS ( 'not_yet_approved' ) ;
#131 = APPROVAL_ROLE ( '' ) ;
#132 = DATE_AND_TIME ( #27, #78 ) ;
#133 = APPROVAL_DATE_TIME ( #132, #84 ) ;
#134 = PERSON_AND_ORGANIZATION ( #55, #36 ) ;
#135 = PERSON_AND_ORGANIZATION_ROLE ( 'creator' ) ;
#136 = PERSON_AND_ORGANIZATION ( #55, #36 ) ;
#137 = PERSON_AND_ORGANIZATION_ROLE ( 'design_supplier' ) ;
#138 = SECURITY_CLASSIFICATION_LEVEL ( 'unclassified' ) ;
#139 = PERSON_AND_ORGANIZATION ( #55, #36 ) ;
#140 = PERSON_AND_ORGANIZATION_ROLE ( 'classification_officer' ) ;
#141 = DATE_AND_TIME ( #19, #72 ) ;
#142 = DATE_TIME_ROLE ( 'classification_date' ) ;
#143 = PERSON_AND_ORGANIZATION ( #55, #36 ) ;
#144 = APPROVAL_STATUS ( 'not_yet_approved' ) ;
#145 = APPROVAL_ROLE ( '' ) ;
#146 = DATE_AND_TIME ( #15, #63 ) ;
#147 = APPROVAL_DATE_TIME ( #146, #70 ) ;
#148 = VERTEX_POINT ( 'NONE', #100 ) ;
#149 = VERTEX_POINT ( 'NONE', #101 ) ;
#150 = VERTEX_POINT ( 'NONE', #102 ) ;
#151 = VERTEX_POINT ( 'NONE', #103 ) ;
#152 = VERTEX_POINT ( 'NONE', #104 ) ;
#153 = VERTEX_POINT ( 'NONE', #105 ) ;
#154 = VERTEX_POINT ( 'NONE', #106 ) ;
#155 = VERTEX_POINT ( 'NONE', #107 ) ;
#156 = ORIENTED_EDGE ( 'NONE', *, *, #88, .F. ) ;
#157 = ORIENTED_EDGE ( 'NONE', *, *, #80, .F. ) ;
#158 = ORIENTED_EDGE ( 'NONE', *, *, #59, .F. ) ;
#159 = ORIENTED_EDGE ( 'NONE', *, *, #67, .F. ) ;
#160 = ORIENTED_EDGE ( 'NONE', *, *, #58, .T. ) ;
#161 = ORIENTED_EDGE ( 'NONE', *, *, #62, .T. ) ;
#162 = ORIENTED_EDGE ( 'NONE', *, *, #79, .T. ) ;
#163 = ORIENTED_EDGE ( 'NONE', *, *, #65, .T. ) ;
#164 = ORIENTED_EDGE ( 'NONE', *, *, #57, .T. ) ;
#165 = ORIENTED_EDGE ( 'NONE', *, *, #60, .F. ) ;
#166 = ORIENTED_EDGE ( 'NONE', *, *, #57, .F. ) ;
#167 = ORIENTED_EDGE ( 'NONE', *, *, #88, .T. ) ;
#168 = ORIENTED_EDGE ( 'NONE', *, *, #58, .F. ) ;
#169 = ORIENTED_EDGE ( 'NONE', *, *, #65, .F. ) ;
#170 = ORIENTED_EDGE ( 'NONE', *, *, #61, .T. ) ;
#171 = ORIENTED_EDGE ( 'NONE', *, *, #67, .T. ) ;
#172 = ORIENTED_EDGE ( 'NONE', *, *, #59, .T. ) ;
#173 = ORIENTED_EDGE ( 'NONE', *, *, #82, .T. ) ;
#174 = ORIENTED_EDGE ( 'NONE', *, *, #61, .F. ) ;
#175 = ORIENTED_EDGE ( 'NONE', *, *, #62, .F. ) ;
#176 = ORIENTED_EDGE ( 'NONE', *, *, #80, .T. ) ;
#177 = ORIENTED_EDGE ( 'NONE', *, *, #82, .F. ) ;
#178 = ORIENTED_EDGE ( 'NONE', *, *, #60, .T. ) ;
#179 = ORIENTED_EDGE ( 'NONE', *, *, #79, .F. ) ;
#180 = EDGE_LOOP ( 'NONE', ( #157, #156, #158, #159 ) ) ;
#181 = EDGE_LOOP ( 'NONE', ( #171, #174, #175, #173 ) ) ;
#182 = EDGE_LOOP ( 'NONE', ( #176, #177, #179, #178 ) ) ;
#183 = EDGE_LOOP ( 'NONE', ( #172, #169, #168, #170 ) ) ;
#184 = EDGE_LOOP ( 'NONE', ( #167, #165, #166, #163 ) ) ;
#185 = EDGE_LOOP ( 'NONE', ( #162, #161, #160, #164 ) ) ;
#186 = LINE ( 'NONE', #187, #50 ) ;
#187 = CARTESIAN_POINT ( 'NONE',  ( -9.999999999999998200, 7.500000000000000900, 1000.000000000000000 ) ) ;
#188 = DIRECTION ( 'NONE',  ( -1.000000000000000000, -0.0000000000000000000, -0.0000000000000000000 ) ) ;
#189 = PLANE ( 'NONE',  #17 ) ;
#190 = LINE ( 'NONE', #191, #52 ) ;
#191 = CARTESIAN_POINT ( 'NONE',  ( 10.00000000000000200, 7.500000000000000900, 1000.000000000000000 ) ) ;
#192 = DIRECTION ( 'NONE',  ( -1.156482317317871500E-016, 1.000000000000000000, -0.0000000000000000000 ) ) ;
#193 = LINE ( 'NONE', #194, #12 ) ;
#194 = CARTESIAN_POINT ( 'NONE',  ( 10.00000000000000200, 7.500000000000000900, -1000.000000000000000 ) ) ;
#195 = DIRECTION ( 'NONE',  ( -1.156482317317871500E-016, 1.000000000000000000, -0.0000000000000000000 ) ) ;
#196 = LINE ( 'NONE', #197, #11 ) ;
#197 = CARTESIAN_POINT ( 'NONE',  ( -9.999999999999998200, 7.500000000000000900, 1000.000000000000000 ) ) ;
#198 = DIRECTION ( 'NONE',  ( -0.0000000000000000000, -0.0000000000000000000, -1.000000000000000000 ) ) ;
#199 = LINE ( 'NONE', #200, #4 ) ;
#200 = CARTESIAN_POINT ( 'NONE',  ( 10.00000000000000400, -7.499999999999999100, 1000.000000000000000 ) ) ;
#201 = DIRECTION ( 'NONE',  ( -0.0000000000000000000, -0.0000000000000000000, -1.000000000000000000 ) ) ;
#202 = LINE ( 'NONE', #203, #10 ) ;
#203 = CARTESIAN_POINT ( 'NONE',  ( -9.999999999999998200, -7.500000000000000900, 1000.000000000000000 ) ) ;
#204 = DIRECTION ( 'NONE',  ( 1.000000000000000000, 8.673617379884034200E-017, 0.0000000000000000000 ) ) ;
#205 = LINE ( 'NONE', #206, #13 ) ;
#206 = CARTESIAN_POINT ( 'NONE',  ( 10.00000000000000200, 7.500000000000000900, 1000.000000000000000 ) ) ;
#207 = DIRECTION ( 'NONE',  ( -0.0000000000000000000, -0.0000000000000000000, -1.000000000000000000 ) ) ;
#208 = LINE ( 'NONE', #209, #28 ) ;
#209 = CARTESIAN_POINT ( 'NONE',  ( -9.999999999999998200, -7.500000000000000900, -1000.000000000000000 ) ) ;
#210 = DIRECTION ( 'NONE',  ( 1.000000000000000000, 8.673617379884034200E-017, 0.0000000000000000000 ) ) ;
#211 = CARTESIAN_POINT ( 'NONE',  ( -9.999999999999998200, -7.500000000000000900, 1000.000000000000000 ) ) ;
#212 = DIRECTION ( 'NONE',  ( -8.673617379884034200E-017, 1.000000000000000000, 0.0000000000000000000 ) ) ;
#213 = DIRECTION ( 'NONE',  ( -1.000000000000000000, -8.673617379884034200E-017, 0.0000000000000000000 ) ) ;
#214 = PLANE ( 'NONE',  #24 ) ;
#215 = CARTESIAN_POINT ( 'NONE',  ( 10.00000000000000200, 7.500000000000000900, 1000.000000000000000 ) ) ;
#216 = DIRECTION ( 'NONE',  ( -1.000000000000000000, -1.156482317317871500E-016, 0.0000000000000000000 ) ) ;
#217 = DIRECTION ( 'NONE',  ( 1.156482317317871500E-016, -1.000000000000000000, 0.0000000000000000000 ) ) ;
#218 = LINE ( 'NONE', #219, #26 ) ;
#219 = CARTESIAN_POINT ( 'NONE',  ( -9.999999999999998200, 7.500000000000000900, 1000.000000000000000 ) ) ;
#220 = DIRECTION ( 'NONE',  ( 0.0000000000000000000, -1.000000000000000000, 0.0000000000000000000 ) ) ;
#221 = PLANE ( 'NONE',  #3 ) ;
#222 = DIRECTION ( 'NONE',  ( 1.000000000000000000, 0.0000000000000000000, 0.0000000000000000000 ) ) ;
#223 = LINE ( 'NONE', #224, #33 ) ;
#224 = CARTESIAN_POINT ( 'NONE',  ( -9.999999999999998200, 7.500000000000000900, -1000.000000000000000 ) ) ;
#225 = CARTESIAN_POINT ( 'NONE',  ( -9.999999999999998200, -7.500000000000000900, 1000.000000000000000 ) ) ;
#226 = CARTESIAN_POINT ( 'NONE',  ( -9.999999999999998200, 7.500000000000000900, -1000.000000000000000 ) ) ;
#227 = DIRECTION ( 'NONE',  ( -0.0000000000000000000, 0.0000000000000000000, 1.000000000000000000 ) ) ;
#228 = DIRECTION ( 'NONE',  ( -1.000000000000000000, -0.0000000000000000000, -0.0000000000000000000 ) ) ;
#229 = LINE ( 'NONE', #226, #8 ) ;
#230 = PLANE ( 'NONE',  #21 ) ;
#231 = DIRECTION ( 'NONE',  ( -0.0000000000000000000, 0.0000000000000000000, -1.000000000000000000 ) ) ;
#232 = DIRECTION ( 'NONE',  ( 0.0000000000000000000, -1.000000000000000000, 0.0000000000000000000 ) ) ;
#233 = DIRECTION ( 'NONE',  ( -0.0000000000000000000, -0.0000000000000000000, -1.000000000000000000 ) ) ;
#234 = LINE ( 'NONE', #225, #7 ) ;
#235 = CARTESIAN_POINT ( 'NONE',  ( -9.999999999999998200, 7.500000000000000900, 1000.000000000000000 ) ) ;
#236 = DIRECTION ( 'NONE',  ( 1.000000000000000000, 0.0000000000000000000, -0.0000000000000000000 ) ) ;
#237 = CARTESIAN_POINT ( 'NONE',  ( 0.0000000000000000000, 0.0000000000000000000, -1000.000000000000000 ) ) ;
ENDSEC;
END-ISO-10303-21;
