ISO-10303-21;
HEADER;
FILE_DESCRIPTION (( 'STEP AP203' ),
    '1' );
FILE_NAME ('ª®3D.STEP',
    '2013-05-09T05:32:30',
    ( '11sw' ),
    ( '^LQ»¢®ïÐ' ),
    'SwSTEP 2.0',
    'SolidWorks 2012',
    '' );
FILE_SCHEMA (( 'CONFIG_CONTROL_DESIGN' ));
ENDSEC;

DATA;
#1 = CLOSED_SHELL ( 'NONE', ( #77, #89, #85, #88, #90, #76 ) ) ;
#2 = VECTOR ( 'NONE', #175, 1000.000000000000000 ) ;
#3 = APPROVAL_PERSON_ORGANIZATION ( #233, #75, #235 ) ;
#4 = VECTOR ( 'NONE', #148, 1000.000000000000000 ) ;
#5 = CC_DESIGN_APPROVAL ( #75, ( #25 ) ) ;
#6 = AXIS2_PLACEMENT_3D ( 'NONE', #202, #203, #204 ) ;
#7 = VECTOR ( 'NONE', #161, 1000.000000000000000 ) ;
#8 = VECTOR ( 'NONE', #165, 1000.000000000000000 ) ;
#9 = FACE_OUTER_BOUND ( 'NONE', #124, .T. ) ;
#10 = APPROVAL_PERSON_ORGANIZATION ( #210, #63, #212 ) ;
#11 = COORDINATED_UNIVERSAL_TIME_OFFSET ( 9, 0, .AHEAD. ) ;
#12 = CC_DESIGN_APPROVAL ( #63, ( #86 ) ) ;
#13 = AXIS2_PLACEMENT_3D ( 'NONE', #179, #180, #171 ) ;
#14 = APPROVAL_PERSON_ORGANIZATION ( #219, #80, #221 ) ;
#15 = FACE_OUTER_BOUND ( 'NONE', #129, .T. ) ;
#16 = AXIS2_PLACEMENT_3D ( 'NONE', #152, #153, #154 ) ;
#17 = CALENDAR_DATE ( 2013, 9, 5 ) ;
#18 = AXIS2_PLACEMENT_3D ( 'NONE', #156, #157, #158 ) ;
#19 = FACE_OUTER_BOUND ( 'NONE', #127, .T. ) ;
#20 = ORGANIZATION ( 'UNSPECIFIED', 'UNSPECIFIED', '' ) ;
#21 = AXIS2_PLACEMENT_3D ( 'NONE', #187, #188, #189 ) ;
#22 = CALENDAR_DATE ( 2013, 9, 5 ) ;
#23 = CALENDAR_DATE ( 2013, 9, 5 ) ;
#24 = VECTOR ( 'NONE', #176, 1000.000000000000000 ) ;
#25 = SECURITY_CLASSIFICATION ( '', '', #228 ) ;
#26 = AXIS2_PLACEMENT_3D ( 'NONE', #181, #174, #166 ) ;
#27 = FACE_OUTER_BOUND ( 'NONE', #125, .T. ) ;
#28 = CC_DESIGN_SECURITY_CLASSIFICATION ( #25, ( #42 ) ) ;
#29 = VECTOR ( 'NONE', #151, 1000.000000000000000 ) ;
#30 = COORDINATED_UNIVERSAL_TIME_OFFSET ( 9, 0, .AHEAD. ) ;
#31 = AXIS2_PLACEMENT_3D ( 'NONE', #182, #184, #185 ) ;
#32 = VECTOR ( 'NONE', #145, 1000.000000000000000 ) ;
#33 = VECTOR ( 'NONE', #177, 1000.000000000000000 ) ;
#34 = FACE_OUTER_BOUND ( 'NONE', #128, .T. ) ;
#35 = COORDINATED_UNIVERSAL_TIME_OFFSET ( 9, 0, .AHEAD. ) ;
#36 = CC_DESIGN_APPROVAL ( #80, ( #42 ) ) ;
#37 = VECTOR ( 'NONE', #136, 1000.000000000000000 ) ;
#38 = COORDINATED_UNIVERSAL_TIME_OFFSET ( 9, 0, .AHEAD. ) ;
#39 = VECTOR ( 'NONE', #142, 1000.000000000000000 ) ;
#40 = COORDINATED_UNIVERSAL_TIME_OFFSET ( 9, 0, .AHEAD. ) ;
#41 = FACE_OUTER_BOUND ( 'NONE', #126, .T. ) ;
#42 = PRODUCT_DEFINITION_FORMATION_WITH_SPECIFIED_SOURCE ( 'ANY', '', #53, .NOT_KNOWN. ) ;
#43 = VECTOR ( 'NONE', #139, 1000.000000000000000 ) ;
#44 = CALENDAR_DATE ( 2013, 9, 5 ) ;
#45 = VECTOR ( 'NONE', #132, 1000.000000000000000 ) ;
#46 = CALENDAR_DATE ( 2013, 9, 5 ) ;
#47 = APPLICATION_CONTEXT ( 'configuration controlled 3d designs of mechanical parts and assemblies' ) ;
#48 = APPLICATION_CONTEXT ( 'configuration controlled 3d designs of mechanical parts and assemblies' ) ;
#49 = MANIFOLD_SOLID_BREP ( 'ÎÞ½ - µoµ1', #1 ) ;
#50 = PRODUCT_DEFINITION_SHAPE ( 'NONE', 'NONE',  #86 ) ;
#51 = DESIGN_CONTEXT ( 'detailed design', #47, 'design' ) ;
#52 =( GEOMETRIC_REPRESENTATION_CONTEXT ( 3 ) GLOBAL_UNCERTAINTY_ASSIGNED_CONTEXT ( ( #54 ) ) GLOBAL_UNIT_ASSIGNED_CONTEXT ( ( #198, #199, #200 ) ) REPRESENTATION_CONTEXT ( 'NONE', 'WORKASPACE' ) );
#53 = PRODUCT ( 'ª®3D', 'ª®3D', '', ( #206 ) ) ;
#54 = UNCERTAINTY_MEASURE_WITH_UNIT (LENGTH_MEASURE( 1.000000000000000100E-005 ), #198, 'distance_accuracy_value', 'NONE');
#55 = ADVANCED_BREP_SHAPE_REPRESENTATION ( 'ª®3D', ( #49, #6 ), #52 ) ;
#56 = PERSON ( 'UNSPECIFIED', 'UNSPECIFIED', 'UNSPECIFIED', ('UNSPECIFIED'), ('UNSPECIFIED'), ('UNSPECIFIED') ) ;
#57 = EDGE_CURVE ( 'NONE', #96, #94, #130, .T. ) ;
#58 = EDGE_CURVE ( 'NONE', #97, #99, #134, .T. ) ;
#59 = EDGE_CURVE ( 'NONE', #95, #96, #137, .T. ) ;
#60 = EDGE_CURVE ( 'NONE', #92, #95, #140, .T. ) ;
#61 = CC_DESIGN_PERSON_AND_ORGANIZATION_ASSIGNMENT ( #224, #225, ( #42 ) ) ;
#62 = LOCAL_TIME ( 14, 32, 30.00000000000000000, #30 ) ;
#63 = APPROVAL ( #211, 'UNSPECIFIED' ) ;
#64 = EDGE_CURVE ( 'NONE', #93, #94, #143, .T. ) ;
#65 = CC_DESIGN_DATE_AND_TIME_ASSIGNMENT ( #231, #232, ( #25 ) ) ;
#66 = CC_DESIGN_PERSON_AND_ORGANIZATION_ASSIGNMENT ( #229, #230, ( #25 ) ) ;
#67 = CC_DESIGN_DATE_AND_TIME_ASSIGNMENT ( #217, #218, ( #86 ) ) ;
#68 = LOCAL_TIME ( 14, 32, 30.00000000000000000, #11 ) ;
#69 = CC_DESIGN_PERSON_AND_ORGANIZATION_ASSIGNMENT ( #215, #216, ( #86 ) ) ;
#70 = CC_DESIGN_PERSON_AND_ORGANIZATION_ASSIGNMENT ( #226, #227, ( #42 ) ) ;
#71 = LOCAL_TIME ( 14, 32, 30.00000000000000000, #38 ) ;
#72 = EDGE_CURVE ( 'NONE', #98, #96, #146, .T. ) ;
#73 = EDGE_CURVE ( 'NONE', #93, #97, #149, .T. ) ;
#74 = PRODUCT_RELATED_PRODUCT_CATEGORY ( 'detail', '', ( #53 ) ) ;
#75 = APPROVAL ( #234, 'UNSPECIFIED' ) ;
#76 = ADVANCED_FACE ( 'NONE', ( #27 ), #133, .F. ) ;
#77 = ADVANCED_FACE ( 'NONE', ( #9 ), #155, .F. ) ;
#78 = EDGE_CURVE ( 'NONE', #97, #92, #159, .T. ) ;
#79 = LOCAL_TIME ( 14, 32, 30.00000000000000000, #40 ) ;
#80 = APPROVAL ( #220, 'UNSPECIFIED' ) ;
#81 = EDGE_CURVE ( 'NONE', #95, #93, #163, .T. ) ;
#82 = EDGE_CURVE ( 'NONE', #99, #98, #168, .T. ) ;
#83 = EDGE_CURVE ( 'NONE', #92, #98, #178, .T. ) ;
#84 = CC_DESIGN_PERSON_AND_ORGANIZATION_ASSIGNMENT ( #207, #208, ( #53 ) ) ;
#85 = ADVANCED_FACE ( 'NONE', ( #34 ), #162, .F. ) ;
#86 = PRODUCT_DEFINITION ( 'UNKNOWN', '', #42, #51 ) ;
#87 = EDGE_CURVE ( 'NONE', #94, #99, #170, .T. ) ;
#88 = ADVANCED_FACE ( 'NONE', ( #19 ), #173, .F. ) ;
#89 = ADVANCED_FACE ( 'NONE', ( #41 ), #183, .F. ) ;
#90 = ADVANCED_FACE ( 'NONE', ( #15 ), #186, .T. ) ;
#91 = LOCAL_TIME ( 14, 32, 30.00000000000000000, #35 ) ;
#92 = VERTEX_POINT ( 'NONE', #190 ) ;
#93 = VERTEX_POINT ( 'NONE', #191 ) ;
#94 = VERTEX_POINT ( 'NONE', #192 ) ;
#95 = VERTEX_POINT ( 'NONE', #193 ) ;
#96 = VERTEX_POINT ( 'NONE', #194 ) ;
#97 = VERTEX_POINT ( 'NONE', #195 ) ;
#98 = VERTEX_POINT ( 'NONE', #196 ) ;
#99 = VERTEX_POINT ( 'NONE', #197 ) ;
#100 = ORIENTED_EDGE ( 'NONE', *, *, #78, .T. ) ;
#101 = ORIENTED_EDGE ( 'NONE', *, *, #82, .F. ) ;
#102 = ORIENTED_EDGE ( 'NONE', *, *, #87, .T. ) ;
#103 = ORIENTED_EDGE ( 'NONE', *, *, #81, .F. ) ;
#104 = ORIENTED_EDGE ( 'NONE', *, *, #64, .F. ) ;
#105 = ORIENTED_EDGE ( 'NONE', *, *, #59, .T. ) ;
#106 = ORIENTED_EDGE ( 'NONE', *, *, #60, .T. ) ;
#107 = ORIENTED_EDGE ( 'NONE', *, *, #57, .F. ) ;
#108 = ORIENTED_EDGE ( 'NONE', *, *, #78, .F. ) ;
#109 = ORIENTED_EDGE ( 'NONE', *, *, #72, .T. ) ;
#110 = ORIENTED_EDGE ( 'NONE', *, *, #57, .T. ) ;
#111 = ORIENTED_EDGE ( 'NONE', *, *, #87, .F. ) ;
#112 = ORIENTED_EDGE ( 'NONE', *, *, #83, .T. ) ;
#113 = ORIENTED_EDGE ( 'NONE', *, *, #72, .F. ) ;
#114 = ORIENTED_EDGE ( 'NONE', *, *, #73, .F. ) ;
#115 = ORIENTED_EDGE ( 'NONE', *, *, #59, .F. ) ;
#116 = ORIENTED_EDGE ( 'NONE', *, *, #60, .F. ) ;
#117 = ORIENTED_EDGE ( 'NONE', *, *, #73, .T. ) ;
#118 = ORIENTED_EDGE ( 'NONE', *, *, #64, .T. ) ;
#119 = ORIENTED_EDGE ( 'NONE', *, *, #58, .F. ) ;
#120 = ORIENTED_EDGE ( 'NONE', *, *, #82, .T. ) ;
#121 = ORIENTED_EDGE ( 'NONE', *, *, #83, .F. ) ;
#122 = ORIENTED_EDGE ( 'NONE', *, *, #58, .T. ) ;
#123 = ORIENTED_EDGE ( 'NONE', *, *, #81, .T. ) ;
#124 = EDGE_LOOP ( 'NONE', ( #120, #121, #108, #122 ) ) ;
#125 = EDGE_LOOP ( 'NONE', ( #101, #111, #107, #113 ) ) ;
#126 = EDGE_LOOP ( 'NONE', ( #109, #115, #116, #112 ) ) ;
#127 = EDGE_LOOP ( 'NONE', ( #102, #119, #114, #118 ) ) ;
#128 = EDGE_LOOP ( 'NONE', ( #110, #104, #103, #105 ) ) ;
#129 = EDGE_LOOP ( 'NONE', ( #100, #106, #123, #117 ) ) ;
#130 = LINE ( 'NONE', #131, #45 ) ;
#131 = CARTESIAN_POINT ( 'NONE',  ( 7.500000000000000000, 7.500000000000000000, -1000.000000000000000 ) ) ;
#132 = DIRECTION ( 'NONE',  ( -1.156482317317871500E-016, 1.000000000000000000, -0.0000000000000000000 ) ) ;
#133 = PLANE ( 'NONE',  #16 ) ;
#134 = LINE ( 'NONE', #135, #37 ) ;
#135 = CARTESIAN_POINT ( 'NONE',  ( -7.500000000000000000, 7.500000000000001800, 1000.000000000000000 ) ) ;
#136 = DIRECTION ( 'NONE',  ( -0.0000000000000000000, -0.0000000000000000000, -1.000000000000000000 ) ) ;
#137 = LINE ( 'NONE', #138, #43 ) ;
#138 = CARTESIAN_POINT ( 'NONE',  ( 7.500000000000001800, -7.500000000000000000, 1000.000000000000000 ) ) ;
#139 = DIRECTION ( 'NONE',  ( -0.0000000000000000000, -0.0000000000000000000, -1.000000000000000000 ) ) ;
#140 = LINE ( 'NONE', #141, #39 ) ;
#141 = CARTESIAN_POINT ( 'NONE',  ( -7.500000000000000000, -7.500000000000001800, 1000.000000000000000 ) ) ;
#142 = DIRECTION ( 'NONE',  ( 1.000000000000000000, 1.156482317317871500E-016, 0.0000000000000000000 ) ) ;
#143 = LINE ( 'NONE', #144, #32 ) ;
#144 = CARTESIAN_POINT ( 'NONE',  ( 7.500000000000000000, 7.500000000000000000, 1000.000000000000000 ) ) ;
#145 = DIRECTION ( 'NONE',  ( -0.0000000000000000000, -0.0000000000000000000, -1.000000000000000000 ) ) ;
#146 = LINE ( 'NONE', #147, #4 ) ;
#147 = CARTESIAN_POINT ( 'NONE',  ( -7.500000000000000000, -7.500000000000001800, -1000.000000000000000 ) ) ;
#148 = DIRECTION ( 'NONE',  ( 1.000000000000000000, 1.156482317317871500E-016, 0.0000000000000000000 ) ) ;
#149 = LINE ( 'NONE', #150, #29 ) ;
#150 = CARTESIAN_POINT ( 'NONE',  ( -7.500000000000000000, 7.500000000000001800, 1000.000000000000000 ) ) ;
#151 = DIRECTION ( 'NONE',  ( -1.000000000000000000, 1.156482317317871500E-016, -0.0000000000000000000 ) ) ;
#152 = CARTESIAN_POINT ( 'NONE',  ( 0.0000000000000000000, 0.0000000000000000000, -1000.000000000000000 ) ) ;
#153 = DIRECTION ( 'NONE',  ( -0.0000000000000000000, 0.0000000000000000000, 1.000000000000000000 ) ) ;
#154 = DIRECTION ( 'NONE',  ( 1.000000000000000000, 0.0000000000000000000, 0.0000000000000000000 ) ) ;
#155 = PLANE ( 'NONE',  #18 ) ;
#156 = CARTESIAN_POINT ( 'NONE',  ( -7.500000000000000000, 7.500000000000001800, 1000.000000000000000 ) ) ;
#157 = DIRECTION ( 'NONE',  ( 1.000000000000000000, 0.0000000000000000000, -0.0000000000000000000 ) ) ;
#158 = DIRECTION ( 'NONE',  ( -0.0000000000000000000, 0.0000000000000000000, -1.000000000000000000 ) ) ;
#159 = LINE ( 'NONE', #160, #7 ) ;
#160 = CARTESIAN_POINT ( 'NONE',  ( -7.500000000000000000, 7.500000000000001800, 1000.000000000000000 ) ) ;
#161 = DIRECTION ( 'NONE',  ( 0.0000000000000000000, -1.000000000000000000, 0.0000000000000000000 ) ) ;
#162 = PLANE ( 'NONE',  #13 ) ;
#163 = LINE ( 'NONE', #164, #8 ) ;
#164 = CARTESIAN_POINT ( 'NONE',  ( 7.500000000000000000, 7.500000000000000000, 1000.000000000000000 ) ) ;
#165 = DIRECTION ( 'NONE',  ( -1.156482317317871500E-016, 1.000000000000000000, -0.0000000000000000000 ) ) ;
#166 = DIRECTION ( 'NONE',  ( 1.000000000000000000, -1.156482317317871500E-016, 0.0000000000000000000 ) ) ;
#167 = CARTESIAN_POINT ( 'NONE',  ( -7.500000000000000000, -7.500000000000001800, 1000.000000000000000 ) ) ;
#168 = LINE ( 'NONE', #169, #24 ) ;
#169 = CARTESIAN_POINT ( 'NONE',  ( -7.500000000000000000, 7.500000000000001800, -1000.000000000000000 ) ) ;
#170 = LINE ( 'NONE', #172, #2 ) ;
#171 = DIRECTION ( 'NONE',  ( 1.156482317317871500E-016, -1.000000000000000000, 0.0000000000000000000 ) ) ;
#172 = CARTESIAN_POINT ( 'NONE',  ( -7.500000000000000000, 7.500000000000001800, -1000.000000000000000 ) ) ;
#173 = PLANE ( 'NONE',  #26 ) ;
#174 = DIRECTION ( 'NONE',  ( -1.156482317317871500E-016, -1.000000000000000000, 0.0000000000000000000 ) ) ;
#175 = DIRECTION ( 'NONE',  ( -1.000000000000000000, 1.156482317317871500E-016, -0.0000000000000000000 ) ) ;
#176 = DIRECTION ( 'NONE',  ( 0.0000000000000000000, -1.000000000000000000, 0.0000000000000000000 ) ) ;
#177 = DIRECTION ( 'NONE',  ( -0.0000000000000000000, -0.0000000000000000000, -1.000000000000000000 ) ) ;
#178 = LINE ( 'NONE', #167, #33 ) ;
#179 = CARTESIAN_POINT ( 'NONE',  ( 7.500000000000000000, 7.500000000000000000, 1000.000000000000000 ) ) ;
#180 = DIRECTION ( 'NONE',  ( -1.000000000000000000, -1.156482317317871500E-016, 0.0000000000000000000 ) ) ;
#181 = CARTESIAN_POINT ( 'NONE',  ( -7.500000000000000000, 7.500000000000001800, 1000.000000000000000 ) ) ;
#182 = CARTESIAN_POINT ( 'NONE',  ( -7.500000000000000000, -7.500000000000001800, 1000.000000000000000 ) ) ;
#183 = PLANE ( 'NONE',  #31 ) ;
#184 = DIRECTION ( 'NONE',  ( -1.156482317317871500E-016, 1.000000000000000000, 0.0000000000000000000 ) ) ;
#185 = DIRECTION ( 'NONE',  ( -1.000000000000000000, -1.156482317317871500E-016, 0.0000000000000000000 ) ) ;
#186 = PLANE ( 'NONE',  #21 ) ;
#187 = CARTESIAN_POINT ( 'NONE',  ( 0.0000000000000000000, 0.0000000000000000000, 1000.000000000000000 ) ) ;
#188 = DIRECTION ( 'NONE',  ( -0.0000000000000000000, 0.0000000000000000000, 1.000000000000000000 ) ) ;
#189 = DIRECTION ( 'NONE',  ( 1.000000000000000000, 0.0000000000000000000, 0.0000000000000000000 ) ) ;
#190 = CARTESIAN_POINT ( 'NONE',  ( -7.500000000000000000, -7.500000000000001800, 1000.000000000000000 ) ) ;
#191 = CARTESIAN_POINT ( 'NONE',  ( 7.500000000000000000, 7.500000000000000000, 1000.000000000000000 ) ) ;
#192 = CARTESIAN_POINT ( 'NONE',  ( 7.500000000000000000, 7.500000000000000000, -1000.000000000000000 ) ) ;
#193 = CARTESIAN_POINT ( 'NONE',  ( 7.500000000000001800, -7.500000000000000000, 1000.000000000000000 ) ) ;
#194 = CARTESIAN_POINT ( 'NONE',  ( 7.500000000000001800, -7.500000000000000000, -1000.000000000000000 ) ) ;
#195 = CARTESIAN_POINT ( 'NONE',  ( -7.500000000000000000, 7.500000000000001800, 1000.000000000000000 ) ) ;
#196 = CARTESIAN_POINT ( 'NONE',  ( -7.500000000000000000, -7.500000000000001800, -1000.000000000000000 ) ) ;
#197 = CARTESIAN_POINT ( 'NONE',  ( -7.500000000000000000, 7.500000000000001800, -1000.000000000000000 ) ) ;
#198 =( LENGTH_UNIT ( ) NAMED_UNIT ( * ) SI_UNIT ( .MILLI., .METRE. ) );
#199 =( NAMED_UNIT ( * ) PLANE_ANGLE_UNIT ( ) SI_UNIT ( $, .RADIAN. ) );
#200 =( NAMED_UNIT ( * ) SI_UNIT ( $, .STERADIAN. ) SOLID_ANGLE_UNIT ( ) );
#201 = APPLICATION_PROTOCOL_DEFINITION ( 'international standard', 'config_control_design', 1994, #48 ) ;
#202 = CARTESIAN_POINT ( 'NONE',  ( 0.0000000000000000000, 0.0000000000000000000, 0.0000000000000000000 ) ) ;
#203 = DIRECTION ( 'NONE',  ( 0.0000000000000000000, 0.0000000000000000000, 1.000000000000000000 ) ) ;
#204 = DIRECTION ( 'NONE',  ( 1.000000000000000000, 0.0000000000000000000, 0.0000000000000000000 ) ) ;
#205 = SHAPE_DEFINITION_REPRESENTATION ( #50, #55 ) ;
#206 = MECHANICAL_CONTEXT ( 'NONE', #48, 'mechanical' ) ;
#207 = PERSON_AND_ORGANIZATION ( #56, #20 ) ;
#208 = PERSON_AND_ORGANIZATION_ROLE ( 'design_owner' ) ;
#209 = APPLICATION_PROTOCOL_DEFINITION ( 'international standard', 'config_control_design', 1994, #47 ) ;
#210 = PERSON_AND_ORGANIZATION ( #56, #20 ) ;
#211 = APPROVAL_STATUS ( 'not_yet_approved' ) ;
#212 = APPROVAL_ROLE ( '' ) ;
#213 = DATE_AND_TIME ( #22, #68 ) ;
#214 = APPROVAL_DATE_TIME ( #213, #63 ) ;
#215 = PERSON_AND_ORGANIZATION ( #56, #20 ) ;
#216 = PERSON_AND_ORGANIZATION_ROLE ( 'creator' ) ;
#217 = DATE_AND_TIME ( #23, #79 ) ;
#218 = DATE_TIME_ROLE ( 'creation_date' ) ;
#219 = PERSON_AND_ORGANIZATION ( #56, #20 ) ;
#220 = APPROVAL_STATUS ( 'not_yet_approved' ) ;
#221 = APPROVAL_ROLE ( '' ) ;
#222 = DATE_AND_TIME ( #44, #91 ) ;
#223 = APPROVAL_DATE_TIME ( #222, #80 ) ;
#224 = PERSON_AND_ORGANIZATION ( #56, #20 ) ;
#225 = PERSON_AND_ORGANIZATION_ROLE ( 'creator' ) ;
#226 = PERSON_AND_ORGANIZATION ( #56, #20 ) ;
#227 = PERSON_AND_ORGANIZATION_ROLE ( 'design_supplier' ) ;
#228 = SECURITY_CLASSIFICATION_LEVEL ( 'unclassified' ) ;
#229 = PERSON_AND_ORGANIZATION ( #56, #20 ) ;
#230 = PERSON_AND_ORGANIZATION_ROLE ( 'classification_officer' ) ;
#231 = DATE_AND_TIME ( #17, #62 ) ;
#232 = DATE_TIME_ROLE ( 'classification_date' ) ;
#233 = PERSON_AND_ORGANIZATION ( #56, #20 ) ;
#234 = APPROVAL_STATUS ( 'not_yet_approved' ) ;
#235 = APPROVAL_ROLE ( '' ) ;
#236 = DATE_AND_TIME ( #46, #71 ) ;
#237 = APPROVAL_DATE_TIME ( #236, #75 ) ;
ENDSEC;
END-ISO-10303-21;
