ISO-10303-21;
HEADER;
FILE_DESCRIPTION (( 'STEP AP203' ),
    '1' );
FILE_NAME ('ª®3D.STEP',
    '2013-05-09T05:29:30',
    ( '11sw' ),
    ( '^LQ»¢®ïÐ' ),
    'SwSTEP 2.0',
    'SolidWorks 2012',
    '' );
FILE_SCHEMA (( 'CONFIG_CONTROL_DESIGN' ));
ENDSEC;

DATA;
#1 = CC_DESIGN_SECURITY_CLASSIFICATION ( #19, ( #14 ) ) ;
#2 = VECTOR ( 'NONE', #103, 1000.000000000000000 ) ;
#3 = FACE_OUTER_BOUND ( 'NONE', #140, .T. ) ;
#4 = ORGANIZATION ( 'UNSPECIFIED', 'UNSPECIFIED', '' ) ;
#5 = CALENDAR_DATE ( 2013, 9, 5 ) ;
#6 = AXIS2_PLACEMENT_3D ( 'NONE', #137, #136, #135 ) ;
#7 = VECTOR ( 'NONE', #124, 1000.000000000000000 ) ;
#8 = AXIS2_PLACEMENT_3D ( 'NONE', #202, #203, #204 ) ;
#9 = APPROVAL_PERSON_ORGANIZATION ( #233, #70, #235 ) ;
#10 = AXIS2_PLACEMENT_3D ( 'NONE', #97, #94, #96 ) ;
#11 = CLOSED_SHELL ( 'NONE', ( #90, #58, #86, #85, #57, #87 ) ) ;
#12 = VECTOR ( 'NONE', #189, 1000.000000000000000 ) ;
#13 = VECTOR ( 'NONE', #112, 1000.000000000000000 ) ;
#14 = PRODUCT_DEFINITION_FORMATION_WITH_SPECIFIED_SOURCE ( 'ANY', '', #56, .NOT_KNOWN. ) ;
#15 = VECTOR ( 'NONE', #109, 1000.000000000000000 ) ;
#16 = AXIS2_PLACEMENT_3D ( 'NONE', #95, #104, #92 ) ;
#17 = AXIS2_PLACEMENT_3D ( 'NONE', #184, #185, #186 ) ;
#18 = FACE_OUTER_BOUND ( 'NONE', #144, .T. ) ;
#19 = SECURITY_CLASSIFICATION ( '', '', #228 ) ;
#20 = AXIS2_PLACEMENT_3D ( 'NONE', #133, #132, #131 ) ;
#21 = VECTOR ( 'NONE', #101, 1000.000000000000000 ) ;
#22 = VECTOR ( 'NONE', #105, 1000.000000000000000 ) ;
#23 = COORDINATED_UNIVERSAL_TIME_OFFSET ( 9, 0, .AHEAD. ) ;
#24 = VECTOR ( 'NONE', #121, 1000.000000000000000 ) ;
#25 = CC_DESIGN_APPROVAL ( #75, ( #88 ) ) ;
#26 = CC_DESIGN_APPROVAL ( #81, ( #14 ) ) ;
#27 = CC_DESIGN_APPROVAL ( #70, ( #19 ) ) ;
#28 = VECTOR ( 'NONE', #128, 1000.000000000000000 ) ;
#29 = COORDINATED_UNIVERSAL_TIME_OFFSET ( 9, 0, .AHEAD. ) ;
#30 = FACE_OUTER_BOUND ( 'NONE', #143, .T. ) ;
#31 = FACE_OUTER_BOUND ( 'NONE', #139, .T. ) ;
#32 = APPROVAL_PERSON_ORGANIZATION ( #210, #75, #212 ) ;
#33 = VECTOR ( 'NONE', #182, 1000.000000000000000 ) ;
#34 = CALENDAR_DATE ( 2013, 9, 5 ) ;
#35 = COORDINATED_UNIVERSAL_TIME_OFFSET ( 9, 0, .AHEAD. ) ;
#36 = CALENDAR_DATE ( 2013, 9, 5 ) ;
#37 = FACE_OUTER_BOUND ( 'NONE', #142, .T. ) ;
#38 = VECTOR ( 'NONE', #115, 1000.000000000000000 ) ;
#39 = CALENDAR_DATE ( 2013, 9, 5 ) ;
#40 = COORDINATED_UNIVERSAL_TIME_OFFSET ( 9, 0, .AHEAD. ) ;
#41 = APPROVAL_PERSON_ORGANIZATION ( #219, #81, #221 ) ;
#42 = VECTOR ( 'NONE', #118, 1000.000000000000000 ) ;
#43 = CALENDAR_DATE ( 2013, 9, 5 ) ;
#44 = AXIS2_PLACEMENT_3D ( 'NONE', #178, #177, #179 ) ;
#45 = FACE_OUTER_BOUND ( 'NONE', #141, .T. ) ;
#46 = COORDINATED_UNIVERSAL_TIME_OFFSET ( 9, 0, .AHEAD. ) ;
#47 = UNCERTAINTY_MEASURE_WITH_UNIT (LENGTH_MEASURE( 1.000000000000000100E-005 ), #198, 'distance_accuracy_value', 'NONE');
#48 = PERSON ( 'UNSPECIFIED', 'UNSPECIFIED', 'UNSPECIFIED', ('UNSPECIFIED'), ('UNSPECIFIED'), ('UNSPECIFIED') ) ;
#49 = ADVANCED_BREP_SHAPE_REPRESENTATION ( 'ª®3D', ( #52, #8 ), #55 ) ;
#50 = APPLICATION_CONTEXT ( 'configuration controlled 3d designs of mechanical parts and assemblies' ) ;
#51 = APPLICATION_CONTEXT ( 'configuration controlled 3d designs of mechanical parts and assemblies' ) ;
#52 = MANIFOLD_SOLID_BREP ( 'ÎÞ½ - µoµ1', #11 ) ;
#53 = PRODUCT_DEFINITION_SHAPE ( 'NONE', 'NONE',  #88 ) ;
#54 = DESIGN_CONTEXT ( 'detailed design', #51, 'design' ) ;
#55 =( GEOMETRIC_REPRESENTATION_CONTEXT ( 3 ) GLOBAL_UNCERTAINTY_ASSIGNED_CONTEXT ( ( #47 ) ) GLOBAL_UNIT_ASSIGNED_CONTEXT ( ( #198, #199, #200 ) ) REPRESENTATION_CONTEXT ( 'NONE', 'WORKASPACE' ) );
#56 = PRODUCT ( 'ª®3D', 'ª®3D', '', ( #206 ) ) ;
#57 = ADVANCED_FACE ( 'NONE', ( #30 ), #138, .T. ) ;
#58 = ADVANCED_FACE ( 'NONE', ( #31 ), #134, .F. ) ;
#59 = CC_DESIGN_PERSON_AND_ORGANIZATION_ASSIGNMENT ( #207, #208, ( #56 ) ) ;
#60 = LOCAL_TIME ( 14, 29, 30.00000000000000000, #40 ) ;
#61 = EDGE_CURVE ( 'NONE', #176, #170, #130, .T. ) ;
#62 = CC_DESIGN_PERSON_AND_ORGANIZATION_ASSIGNMENT ( #229, #230, ( #19 ) ) ;
#63 = PRODUCT_RELATED_PRODUCT_CATEGORY ( 'detail', '', ( #56 ) ) ;
#64 = CC_DESIGN_DATE_AND_TIME_ASSIGNMENT ( #217, #218, ( #88 ) ) ;
#65 = LOCAL_TIME ( 14, 29, 30.00000000000000000, #23 ) ;
#66 = LOCAL_TIME ( 14, 29, 30.00000000000000000, #46 ) ;
#67 = CC_DESIGN_DATE_AND_TIME_ASSIGNMENT ( #231, #232, ( #19 ) ) ;
#68 = CC_DESIGN_PERSON_AND_ORGANIZATION_ASSIGNMENT ( #224, #225, ( #14 ) ) ;
#69 = CC_DESIGN_PERSON_AND_ORGANIZATION_ASSIGNMENT ( #226, #227, ( #14 ) ) ;
#70 = APPROVAL ( #234, 'UNSPECIFIED' ) ;
#71 = EDGE_CURVE ( 'NONE', #171, #172, #126, .T. ) ;
#72 = EDGE_CURVE ( 'NONE', #174, #171, #123, .T. ) ;
#73 = CC_DESIGN_PERSON_AND_ORGANIZATION_ASSIGNMENT ( #215, #216, ( #88 ) ) ;
#74 = EDGE_CURVE ( 'NONE', #172, #173, #120, .T. ) ;
#75 = APPROVAL ( #211, 'UNSPECIFIED' ) ;
#76 = EDGE_CURVE ( 'NONE', #170, #169, #117, .T. ) ;
#77 = EDGE_CURVE ( 'NONE', #174, #175, #114, .T. ) ;
#78 = EDGE_CURVE ( 'NONE', #170, #174, #111, .T. ) ;
#79 = EDGE_CURVE ( 'NONE', #171, #176, #108, .T. ) ;
#80 = LOCAL_TIME ( 14, 29, 30.00000000000000000, #35 ) ;
#81 = APPROVAL ( #220, 'UNSPECIFIED' ) ;
#82 = EDGE_CURVE ( 'NONE', #169, #175, #98, .T. ) ;
#83 = EDGE_CURVE ( 'NONE', #173, #169, #99, .T. ) ;
#84 = LOCAL_TIME ( 14, 29, 30.00000000000000000, #29 ) ;
#85 = ADVANCED_FACE ( 'NONE', ( #37 ), #127, .F. ) ;
#86 = ADVANCED_FACE ( 'NONE', ( #3 ), #93, .F. ) ;
#87 = ADVANCED_FACE ( 'NONE', ( #18 ), #107, .F. ) ;
#88 = PRODUCT_DEFINITION ( 'UNKNOWN', '', #14, #54 ) ;
#89 = EDGE_CURVE ( 'NONE', #175, #172, #180, .T. ) ;
#90 = ADVANCED_FACE ( 'NONE', ( #45 ), #183, .F. ) ;
#91 = EDGE_CURVE ( 'NONE', #176, #173, #187, .T. ) ;
#92 = DIRECTION ( 'NONE',  ( 1.156482317317871500E-016, -1.000000000000000000, 0.0000000000000000000 ) ) ;
#93 = PLANE ( 'NONE',  #16 ) ;
#94 = DIRECTION ( 'NONE',  ( -1.734723475976807100E-016, -1.000000000000000000, 0.0000000000000000000 ) ) ;
#95 = CARTESIAN_POINT ( 'NONE',  ( 5.000000000000000000, 7.500000000000000000, 1000.000000000000000 ) ) ;
#96 = DIRECTION ( 'NONE',  ( 1.000000000000000000, -1.734723475976807100E-016, 0.0000000000000000000 ) ) ;
#97 = CARTESIAN_POINT ( 'NONE',  ( -5.000000000000000000, 7.500000000000001800, 1000.000000000000000 ) ) ;
#98 = LINE ( 'NONE', #100, #21 ) ;
#99 = LINE ( 'NONE', #102, #2 ) ;
#100 = CARTESIAN_POINT ( 'NONE',  ( -5.000000000000000000, 7.500000000000001800, -1000.000000000000000 ) ) ;
#101 = DIRECTION ( 'NONE',  ( 0.0000000000000000000, -1.000000000000000000, 0.0000000000000000000 ) ) ;
#102 = CARTESIAN_POINT ( 'NONE',  ( -5.000000000000000000, 7.500000000000001800, -1000.000000000000000 ) ) ;
#103 = DIRECTION ( 'NONE',  ( -1.000000000000000000, 1.734723475976807100E-016, -0.0000000000000000000 ) ) ;
#104 = DIRECTION ( 'NONE',  ( -1.000000000000000000, -1.156482317317871500E-016, 0.0000000000000000000 ) ) ;
#105 = DIRECTION ( 'NONE',  ( -1.156482317317871500E-016, 1.000000000000000000, -0.0000000000000000000 ) ) ;
#106 = CARTESIAN_POINT ( 'NONE',  ( 5.000000000000000000, 7.500000000000000000, 1000.000000000000000 ) ) ;
#107 = PLANE ( 'NONE',  #44 ) ;
#108 = LINE ( 'NONE', #106, #22 ) ;
#109 = DIRECTION ( 'NONE',  ( 0.0000000000000000000, -1.000000000000000000, 0.0000000000000000000 ) ) ;
#110 = CARTESIAN_POINT ( 'NONE',  ( -5.000000000000000000, 7.500000000000001800, 1000.000000000000000 ) ) ;
#111 = LINE ( 'NONE', #110, #15 ) ;
#112 = DIRECTION ( 'NONE',  ( -0.0000000000000000000, -0.0000000000000000000, -1.000000000000000000 ) ) ;
#113 = CARTESIAN_POINT ( 'NONE',  ( -5.000000000000000000, -7.500000000000001800, 1000.000000000000000 ) ) ;
#114 = LINE ( 'NONE', #113, #13 ) ;
#115 = DIRECTION ( 'NONE',  ( -0.0000000000000000000, -0.0000000000000000000, -1.000000000000000000 ) ) ;
#116 = CARTESIAN_POINT ( 'NONE',  ( -5.000000000000000000, 7.500000000000001800, 1000.000000000000000 ) ) ;
#117 = LINE ( 'NONE', #116, #38 ) ;
#118 = DIRECTION ( 'NONE',  ( -1.156482317317871500E-016, 1.000000000000000000, -0.0000000000000000000 ) ) ;
#119 = CARTESIAN_POINT ( 'NONE',  ( 5.000000000000000000, 7.500000000000000000, -1000.000000000000000 ) ) ;
#120 = LINE ( 'NONE', #119, #42 ) ;
#121 = DIRECTION ( 'NONE',  ( 1.000000000000000000, 1.734723475976806800E-016, 0.0000000000000000000 ) ) ;
#122 = CARTESIAN_POINT ( 'NONE',  ( -5.000000000000000000, -7.500000000000001800, 1000.000000000000000 ) ) ;
#123 = LINE ( 'NONE', #122, #24 ) ;
#124 = DIRECTION ( 'NONE',  ( -0.0000000000000000000, -0.0000000000000000000, -1.000000000000000000 ) ) ;
#125 = CARTESIAN_POINT ( 'NONE',  ( 5.000000000000001800, -7.500000000000000000, 1000.000000000000000 ) ) ;
#126 = LINE ( 'NONE', #125, #7 ) ;
#127 = PLANE ( 'NONE',  #10 ) ;
#128 = DIRECTION ( 'NONE',  ( -1.000000000000000000, 1.734723475976807100E-016, -0.0000000000000000000 ) ) ;
#129 = CARTESIAN_POINT ( 'NONE',  ( -5.000000000000000000, 7.500000000000001800, 1000.000000000000000 ) ) ;
#130 = LINE ( 'NONE', #129, #28 ) ;
#131 = DIRECTION ( 'NONE',  ( -1.000000000000000000, -1.734723475976806800E-016, 0.0000000000000000000 ) ) ;
#132 = DIRECTION ( 'NONE',  ( -1.734723475976806800E-016, 1.000000000000000000, 0.0000000000000000000 ) ) ;
#133 = CARTESIAN_POINT ( 'NONE',  ( -5.000000000000000000, -7.500000000000001800, 1000.000000000000000 ) ) ;
#134 = PLANE ( 'NONE',  #20 ) ;
#135 = DIRECTION ( 'NONE',  ( 1.000000000000000000, 0.0000000000000000000, 0.0000000000000000000 ) ) ;
#136 = DIRECTION ( 'NONE',  ( -0.0000000000000000000, 0.0000000000000000000, 1.000000000000000000 ) ) ;
#137 = CARTESIAN_POINT ( 'NONE',  ( 0.0000000000000000000, 0.0000000000000000000, 1000.000000000000000 ) ) ;
#138 = PLANE ( 'NONE',  #6 ) ;
#139 = EDGE_LOOP ( 'NONE', ( #158, #151, #150, #152 ) ) ;
#140 = EDGE_LOOP ( 'NONE', ( #153, #165, #167, #163 ) ) ;
#141 = EDGE_LOOP ( 'NONE', ( #149, #168, #146, #161 ) ) ;
#142 = EDGE_LOOP ( 'NONE', ( #160, #159, #147, #157 ) ) ;
#143 = EDGE_LOOP ( 'NONE', ( #156, #155, #148, #145 ) ) ;
#144 = EDGE_LOOP ( 'NONE', ( #162, #164, #154, #166 ) ) ;
#145 = ORIENTED_EDGE ( 'NONE', *, *, #61, .T. ) ;
#146 = ORIENTED_EDGE ( 'NONE', *, *, #78, .F. ) ;
#147 = ORIENTED_EDGE ( 'NONE', *, *, #61, .F. ) ;
#148 = ORIENTED_EDGE ( 'NONE', *, *, #79, .T. ) ;
#149 = ORIENTED_EDGE ( 'NONE', *, *, #82, .T. ) ;
#150 = ORIENTED_EDGE ( 'NONE', *, *, #72, .F. ) ;
#151 = ORIENTED_EDGE ( 'NONE', *, *, #71, .F. ) ;
#152 = ORIENTED_EDGE ( 'NONE', *, *, #77, .T. ) ;
#153 = ORIENTED_EDGE ( 'NONE', *, *, #74, .T. ) ;
#154 = ORIENTED_EDGE ( 'NONE', *, *, #74, .F. ) ;
#155 = ORIENTED_EDGE ( 'NONE', *, *, #72, .T. ) ;
#156 = ORIENTED_EDGE ( 'NONE', *, *, #78, .T. ) ;
#157 = ORIENTED_EDGE ( 'NONE', *, *, #91, .T. ) ;
#158 = ORIENTED_EDGE ( 'NONE', *, *, #89, .T. ) ;
#159 = ORIENTED_EDGE ( 'NONE', *, *, #76, .F. ) ;
#160 = ORIENTED_EDGE ( 'NONE', *, *, #83, .T. ) ;
#161 = ORIENTED_EDGE ( 'NONE', *, *, #76, .T. ) ;
#162 = ORIENTED_EDGE ( 'NONE', *, *, #82, .F. ) ;
#163 = ORIENTED_EDGE ( 'NONE', *, *, #71, .T. ) ;
#164 = ORIENTED_EDGE ( 'NONE', *, *, #83, .F. ) ;
#165 = ORIENTED_EDGE ( 'NONE', *, *, #91, .F. ) ;
#166 = ORIENTED_EDGE ( 'NONE', *, *, #89, .F. ) ;
#167 = ORIENTED_EDGE ( 'NONE', *, *, #79, .F. ) ;
#168 = ORIENTED_EDGE ( 'NONE', *, *, #77, .F. ) ;
#169 = VERTEX_POINT ( 'NONE', #190 ) ;
#170 = VERTEX_POINT ( 'NONE', #191 ) ;
#171 = VERTEX_POINT ( 'NONE', #192 ) ;
#172 = VERTEX_POINT ( 'NONE', #193 ) ;
#173 = VERTEX_POINT ( 'NONE', #194 ) ;
#174 = VERTEX_POINT ( 'NONE', #195 ) ;
#175 = VERTEX_POINT ( 'NONE', #196 ) ;
#176 = VERTEX_POINT ( 'NONE', #197 ) ;
#177 = DIRECTION ( 'NONE',  ( -0.0000000000000000000, 0.0000000000000000000, 1.000000000000000000 ) ) ;
#178 = CARTESIAN_POINT ( 'NONE',  ( 0.0000000000000000000, 0.0000000000000000000, -1000.000000000000000 ) ) ;
#179 = DIRECTION ( 'NONE',  ( 1.000000000000000000, 0.0000000000000000000, 0.0000000000000000000 ) ) ;
#180 = LINE ( 'NONE', #181, #33 ) ;
#181 = CARTESIAN_POINT ( 'NONE',  ( -5.000000000000000000, -7.500000000000001800, -1000.000000000000000 ) ) ;
#182 = DIRECTION ( 'NONE',  ( 1.000000000000000000, 1.734723475976806800E-016, 0.0000000000000000000 ) ) ;
#183 = PLANE ( 'NONE',  #17 ) ;
#184 = CARTESIAN_POINT ( 'NONE',  ( -5.000000000000000000, 7.500000000000001800, 1000.000000000000000 ) ) ;
#185 = DIRECTION ( 'NONE',  ( 1.000000000000000000, 0.0000000000000000000, -0.0000000000000000000 ) ) ;
#186 = DIRECTION ( 'NONE',  ( -0.0000000000000000000, 0.0000000000000000000, -1.000000000000000000 ) ) ;
#187 = LINE ( 'NONE', #188, #12 ) ;
#188 = CARTESIAN_POINT ( 'NONE',  ( 5.000000000000000000, 7.500000000000000000, 1000.000000000000000 ) ) ;
#189 = DIRECTION ( 'NONE',  ( -0.0000000000000000000, -0.0000000000000000000, -1.000000000000000000 ) ) ;
#190 = CARTESIAN_POINT ( 'NONE',  ( -5.000000000000000000, 7.500000000000001800, -1000.000000000000000 ) ) ;
#191 = CARTESIAN_POINT ( 'NONE',  ( -5.000000000000000000, 7.500000000000001800, 1000.000000000000000 ) ) ;
#192 = CARTESIAN_POINT ( 'NONE',  ( 5.000000000000001800, -7.500000000000000000, 1000.000000000000000 ) ) ;
#193 = CARTESIAN_POINT ( 'NONE',  ( 5.000000000000001800, -7.500000000000000000, -1000.000000000000000 ) ) ;
#194 = CARTESIAN_POINT ( 'NONE',  ( 5.000000000000000000, 7.500000000000000000, -1000.000000000000000 ) ) ;
#195 = CARTESIAN_POINT ( 'NONE',  ( -5.000000000000000000, -7.500000000000001800, 1000.000000000000000 ) ) ;
#196 = CARTESIAN_POINT ( 'NONE',  ( -5.000000000000000000, -7.500000000000001800, -1000.000000000000000 ) ) ;
#197 = CARTESIAN_POINT ( 'NONE',  ( 5.000000000000000000, 7.500000000000000000, 1000.000000000000000 ) ) ;
#198 =( LENGTH_UNIT ( ) NAMED_UNIT ( * ) SI_UNIT ( .MILLI., .METRE. ) );
#199 =( NAMED_UNIT ( * ) PLANE_ANGLE_UNIT ( ) SI_UNIT ( $, .RADIAN. ) );
#200 =( NAMED_UNIT ( * ) SI_UNIT ( $, .STERADIAN. ) SOLID_ANGLE_UNIT ( ) );
#201 = APPLICATION_PROTOCOL_DEFINITION ( 'international standard', 'config_control_design', 1994, #50 ) ;
#202 = CARTESIAN_POINT ( 'NONE',  ( 0.0000000000000000000, 0.0000000000000000000, 0.0000000000000000000 ) ) ;
#203 = DIRECTION ( 'NONE',  ( 0.0000000000000000000, 0.0000000000000000000, 1.000000000000000000 ) ) ;
#204 = DIRECTION ( 'NONE',  ( 1.000000000000000000, 0.0000000000000000000, 0.0000000000000000000 ) ) ;
#205 = SHAPE_DEFINITION_REPRESENTATION ( #53, #49 ) ;
#206 = MECHANICAL_CONTEXT ( 'NONE', #50, 'mechanical' ) ;
#207 = PERSON_AND_ORGANIZATION ( #48, #4 ) ;
#208 = PERSON_AND_ORGANIZATION_ROLE ( 'design_owner' ) ;
#209 = APPLICATION_PROTOCOL_DEFINITION ( 'international standard', 'config_control_design', 1994, #51 ) ;
#210 = PERSON_AND_ORGANIZATION ( #48, #4 ) ;
#211 = APPROVAL_STATUS ( 'not_yet_approved' ) ;
#212 = APPROVAL_ROLE ( '' ) ;
#213 = DATE_AND_TIME ( #5, #60 ) ;
#214 = APPROVAL_DATE_TIME ( #213, #75 ) ;
#215 = PERSON_AND_ORGANIZATION ( #48, #4 ) ;
#216 = PERSON_AND_ORGANIZATION_ROLE ( 'creator' ) ;
#217 = DATE_AND_TIME ( #36, #84 ) ;
#218 = DATE_TIME_ROLE ( 'creation_date' ) ;
#219 = PERSON_AND_ORGANIZATION ( #48, #4 ) ;
#220 = APPROVAL_STATUS ( 'not_yet_approved' ) ;
#221 = APPROVAL_ROLE ( '' ) ;
#222 = DATE_AND_TIME ( #39, #80 ) ;
#223 = APPROVAL_DATE_TIME ( #222, #81 ) ;
#224 = PERSON_AND_ORGANIZATION ( #48, #4 ) ;
#225 = PERSON_AND_ORGANIZATION_ROLE ( 'creator' ) ;
#226 = PERSON_AND_ORGANIZATION ( #48, #4 ) ;
#227 = PERSON_AND_ORGANIZATION_ROLE ( 'design_supplier' ) ;
#228 = SECURITY_CLASSIFICATION_LEVEL ( 'unclassified' ) ;
#229 = PERSON_AND_ORGANIZATION ( #48, #4 ) ;
#230 = PERSON_AND_ORGANIZATION_ROLE ( 'classification_officer' ) ;
#231 = DATE_AND_TIME ( #43, #66 ) ;
#232 = DATE_TIME_ROLE ( 'classification_date' ) ;
#233 = PERSON_AND_ORGANIZATION ( #48, #4 ) ;
#234 = APPROVAL_STATUS ( 'not_yet_approved' ) ;
#235 = APPROVAL_ROLE ( '' ) ;
#236 = DATE_AND_TIME ( #34, #65 ) ;
#237 = APPROVAL_DATE_TIME ( #236, #70 ) ;
ENDSEC;
END-ISO-10303-21;
