ISO-10303-21;
HEADER;
FILE_DESCRIPTION (( 'STEP AP203' ),
    '1' );
FILE_NAME ('ª®3D.STEP',
    '2013-05-09T05:26:10',
    ( '11sw' ),
    ( '^LQ»¢®ïÐ' ),
    'SwSTEP 2.0',
    'SolidWorks 2012',
    '' );
FILE_SCHEMA (( 'CONFIG_CONTROL_DESIGN' ));
ENDSEC;

DATA;
#1 = PRODUCT_DEFINITION_FORMATION_WITH_SPECIFIED_SOURCE ( 'ANY', '', #54, .NOT_KNOWN. ) ;
#2 = AXIS2_PLACEMENT_3D ( 'NONE', #118, #114, #123 ) ;
#3 = VECTOR ( 'NONE', #120, 1000.000000000000000 ) ;
#4 = CLOSED_SHELL ( 'NONE', ( #68, #91, #81, #88, #90, #87 ) ) ;
#5 = CC_DESIGN_SECURITY_CLASSIFICATION ( #9, ( #1 ) ) ;
#6 = VECTOR ( 'NONE', #121, 1000.000000000000000 ) ;
#7 = CC_DESIGN_APPROVAL ( #72, ( #63 ) ) ;
#8 = FACE_OUTER_BOUND ( 'NONE', #176, .T. ) ;
#9 = SECURITY_CLASSIFICATION ( '', '', #228 ) ;
#10 = FACE_OUTER_BOUND ( 'NONE', #177, .T. ) ;
#11 = CC_DESIGN_APPROVAL ( #80, ( #9 ) ) ;
#12 = VECTOR ( 'NONE', #111, 1000.000000000000000 ) ;
#13 = VECTOR ( 'NONE', #130, 1000.000000000000000 ) ;
#14 = COORDINATED_UNIVERSAL_TIME_OFFSET ( 9, 0, .AHEAD. ) ;
#15 = APPROVAL_PERSON_ORGANIZATION ( #233, #80, #235 ) ;
#16 = CALENDAR_DATE ( 2013, 9, 5 ) ;
#17 = VECTOR ( 'NONE', #197, 1000.000000000000000 ) ;
#18 = FACE_OUTER_BOUND ( 'NONE', #179, .T. ) ;
#19 = VECTOR ( 'NONE', #190, 1000.000000000000000 ) ;
#20 = FACE_OUTER_BOUND ( 'NONE', #178, .T. ) ;
#21 = CALENDAR_DATE ( 2013, 9, 5 ) ;
#22 = AXIS2_PLACEMENT_3D ( 'NONE', #126, #109, #131 ) ;
#23 = VECTOR ( 'NONE', #93, 1000.000000000000000 ) ;
#24 = CALENDAR_DATE ( 2013, 9, 5 ) ;
#25 = COORDINATED_UNIVERSAL_TIME_OFFSET ( 9, 0, .AHEAD. ) ;
#26 = AXIS2_PLACEMENT_3D ( 'NONE', #102, #103, #101 ) ;
#27 = FACE_OUTER_BOUND ( 'NONE', #167, .T. ) ;
#28 = VECTOR ( 'NONE', #105, 1000.000000000000000 ) ;
#29 = VECTOR ( 'NONE', #191, 1000.000000000000000 ) ;
#30 = CALENDAR_DATE ( 2013, 9, 5 ) ;
#31 = CC_DESIGN_APPROVAL ( #64, ( #1 ) ) ;
#32 = VECTOR ( 'NONE', #185, 1000.000000000000000 ) ;
#33 = FACE_OUTER_BOUND ( 'NONE', #175, .T. ) ;
#34 = ORGANIZATION ( 'UNSPECIFIED', 'UNSPECIFIED', '' ) ;
#35 = AXIS2_PLACEMENT_3D ( 'NONE', #134, #196, #117 ) ;
#36 = VECTOR ( 'NONE', #113, 1000.000000000000000 ) ;
#37 = CALENDAR_DATE ( 2013, 9, 5 ) ;
#38 = COORDINATED_UNIVERSAL_TIME_OFFSET ( 9, 0, .AHEAD. ) ;
#39 = AXIS2_PLACEMENT_3D ( 'NONE', #202, #203, #204 ) ;
#40 = COORDINATED_UNIVERSAL_TIME_OFFSET ( 9, 0, .AHEAD. ) ;
#41 = AXIS2_PLACEMENT_3D ( 'NONE', #127, #129, #137 ) ;
#42 = APPROVAL_PERSON_ORGANIZATION ( #210, #72, #212 ) ;
#43 = VECTOR ( 'NONE', #104, 1000.000000000000000 ) ;
#44 = APPROVAL_PERSON_ORGANIZATION ( #219, #64, #221 ) ;
#45 = AXIS2_PLACEMENT_3D ( 'NONE', #99, #98, #97 ) ;
#46 = COORDINATED_UNIVERSAL_TIME_OFFSET ( 9, 0, .AHEAD. ) ;
#47 = APPLICATION_CONTEXT ( 'configuration controlled 3d designs of mechanical parts and assemblies' ) ;
#48 = APPLICATION_CONTEXT ( 'configuration controlled 3d designs of mechanical parts and assemblies' ) ;
#49 = DESIGN_CONTEXT ( 'detailed design', #47, 'design' ) ;
#50 = MANIFOLD_SOLID_BREP ( 'ÎÞ½ - µoµ1', #4 ) ;
#51 = PRODUCT_DEFINITION_SHAPE ( 'NONE', 'NONE',  #63 ) ;
#52 =( GEOMETRIC_REPRESENTATION_CONTEXT ( 3 ) GLOBAL_UNCERTAINTY_ASSIGNED_CONTEXT ( ( #53 ) ) GLOBAL_UNIT_ASSIGNED_CONTEXT ( ( #198, #199, #200 ) ) REPRESENTATION_CONTEXT ( 'NONE', 'WORKASPACE' ) );
#53 = UNCERTAINTY_MEASURE_WITH_UNIT (LENGTH_MEASURE( 1.000000000000000100E-005 ), #198, 'distance_accuracy_value', 'NONE');
#54 = PRODUCT ( 'ª®3D', 'ª®3D', '', ( #206 ) ) ;
#55 = ADVANCED_BREP_SHAPE_REPRESENTATION ( 'ª®3D', ( #50, #39 ), #52 ) ;
#56 = PERSON ( 'UNSPECIFIED', 'UNSPECIFIED', 'UNSPECIFIED', ('UNSPECIFIED'), ('UNSPECIFIED'), ('UNSPECIFIED') ) ;
#57 = CC_DESIGN_DATE_AND_TIME_ASSIGNMENT ( #231, #232, ( #9 ) ) ;
#58 = LOCAL_TIME ( 14, 26, 10.00000000000000000, #46 ) ;
#59 = CC_DESIGN_PERSON_AND_ORGANIZATION_ASSIGNMENT ( #229, #230, ( #9 ) ) ;
#60 = CC_DESIGN_PERSON_AND_ORGANIZATION_ASSIGNMENT ( #226, #227, ( #1 ) ) ;
#61 = CC_DESIGN_PERSON_AND_ORGANIZATION_ASSIGNMENT ( #224, #225, ( #1 ) ) ;
#62 = LOCAL_TIME ( 14, 26, 10.00000000000000000, #25 ) ;
#63 = PRODUCT_DEFINITION ( 'UNKNOWN', '', #1, #49 ) ;
#64 = APPROVAL ( #220, 'UNSPECIFIED' ) ;
#65 = CC_DESIGN_DATE_AND_TIME_ASSIGNMENT ( #217, #218, ( #63 ) ) ;
#66 = EDGE_CURVE ( 'NONE', #140, #145, #183, .T. ) ;
#67 = CC_DESIGN_PERSON_AND_ORGANIZATION_ASSIGNMENT ( #207, #208, ( #54 ) ) ;
#68 = ADVANCED_FACE ( 'NONE', ( #10 ), #186, .F. ) ;
#69 = EDGE_CURVE ( 'NONE', #146, #145, #193, .T. ) ;
#70 = LOCAL_TIME ( 14, 26, 10.00000000000000000, #40 ) ;
#71 = CC_DESIGN_PERSON_AND_ORGANIZATION_ASSIGNMENT ( #215, #216, ( #63 ) ) ;
#72 = APPROVAL ( #211, 'UNSPECIFIED' ) ;
#73 = LOCAL_TIME ( 14, 26, 10.00000000000000000, #14 ) ;
#74 = EDGE_CURVE ( 'NONE', #140, #143, #194, .T. ) ;
#75 = EDGE_CURVE ( 'NONE', #139, #144, #159, .T. ) ;
#76 = PRODUCT_RELATED_PRODUCT_CATEGORY ( 'detail', '', ( #54 ) ) ;
#77 = LOCAL_TIME ( 14, 26, 10.00000000000000000, #38 ) ;
#78 = EDGE_CURVE ( 'NONE', #145, #141, #189, .T. ) ;
#79 = EDGE_CURVE ( 'NONE', #144, #140, #187, .T. ) ;
#80 = APPROVAL ( #234, 'UNSPECIFIED' ) ;
#81 = ADVANCED_FACE ( 'NONE', ( #33 ), #112, .F. ) ;
#82 = EDGE_CURVE ( 'NONE', #143, #139, #119, .T. ) ;
#83 = EDGE_CURVE ( 'NONE', #141, #142, #115, .T. ) ;
#84 = EDGE_CURVE ( 'NONE', #144, #146, #128, .T. ) ;
#85 = EDGE_CURVE ( 'NONE', #139, #142, #108, .T. ) ;
#86 = EDGE_CURVE ( 'NONE', #142, #146, #125, .T. ) ;
#87 = ADVANCED_FACE ( 'NONE', ( #18 ), #116, .F. ) ;
#88 = ADVANCED_FACE ( 'NONE', ( #27 ), #132, .F. ) ;
#89 = EDGE_CURVE ( 'NONE', #143, #141, #107, .T. ) ;
#90 = ADVANCED_FACE ( 'NONE', ( #20 ), #106, .T. ) ;
#91 = ADVANCED_FACE ( 'NONE', ( #8 ), #100, .F. ) ;
#92 = CARTESIAN_POINT ( 'NONE',  ( 10.00000000000000000, 5.000000000000000000, -1000.000000000000000 ) ) ;
#93 = DIRECTION ( 'NONE',  ( -1.000000000000000000, 8.673617379884035500E-017, -0.0000000000000000000 ) ) ;
#94 = CARTESIAN_POINT ( 'NONE',  ( 10.00000000000000200, -5.000000000000000000, -1000.000000000000000 ) ) ;
#95 = CARTESIAN_POINT ( 'NONE',  ( -10.00000000000000000, -5.000000000000001800, 1000.000000000000000 ) ) ;
#96 = CARTESIAN_POINT ( 'NONE',  ( 10.00000000000000000, 5.000000000000000000, 1000.000000000000000 ) ) ;
#97 = DIRECTION ( 'NONE',  ( -1.000000000000000000, -8.673617379884034200E-017, 0.0000000000000000000 ) ) ;
#98 = DIRECTION ( 'NONE',  ( -8.673617379884034200E-017, 1.000000000000000000, 0.0000000000000000000 ) ) ;
#99 = CARTESIAN_POINT ( 'NONE',  ( -10.00000000000000000, -5.000000000000001800, 1000.000000000000000 ) ) ;
#100 = PLANE ( 'NONE',  #45 ) ;
#101 = DIRECTION ( 'NONE',  ( 1.000000000000000000, 0.0000000000000000000, 0.0000000000000000000 ) ) ;
#102 = CARTESIAN_POINT ( 'NONE',  ( 0.0000000000000000000, 0.0000000000000000000, 1000.000000000000000 ) ) ;
#103 = DIRECTION ( 'NONE',  ( -0.0000000000000000000, 0.0000000000000000000, 1.000000000000000000 ) ) ;
#104 = DIRECTION ( 'NONE',  ( -0.0000000000000000000, -0.0000000000000000000, -1.000000000000000000 ) ) ;
#105 = DIRECTION ( 'NONE',  ( -0.0000000000000000000, -0.0000000000000000000, -1.000000000000000000 ) ) ;
#106 = PLANE ( 'NONE',  #26 ) ;
#107 = LINE ( 'NONE', #133, #43 ) ;
#108 = LINE ( 'NONE', #136, #28 ) ;
#109 = DIRECTION ( 'NONE',  ( -8.673617379884035500E-017, -1.000000000000000000, 0.0000000000000000000 ) ) ;
#110 = CARTESIAN_POINT ( 'NONE',  ( -10.00000000000000000, 5.000000000000001800, -1000.000000000000000 ) ) ;
#111 = DIRECTION ( 'NONE',  ( 0.0000000000000000000, -1.000000000000000000, 0.0000000000000000000 ) ) ;
#112 = PLANE ( 'NONE',  #2 ) ;
#113 = DIRECTION ( 'NONE',  ( 0.0000000000000000000, -1.000000000000000000, 0.0000000000000000000 ) ) ;
#114 = DIRECTION ( 'NONE',  ( -1.000000000000000000, -1.734723475976807100E-016, 0.0000000000000000000 ) ) ;
#115 = LINE ( 'NONE', #124, #6 ) ;
#116 = PLANE ( 'NONE',  #41 ) ;
#117 = DIRECTION ( 'NONE',  ( -0.0000000000000000000, 0.0000000000000000000, -1.000000000000000000 ) ) ;
#118 = CARTESIAN_POINT ( 'NONE',  ( 10.00000000000000000, 5.000000000000000000, 1000.000000000000000 ) ) ;
#119 = LINE ( 'NONE', #138, #3 ) ;
#120 = DIRECTION ( 'NONE',  ( -1.734723475976807100E-016, 1.000000000000000000, -0.0000000000000000000 ) ) ;
#121 = DIRECTION ( 'NONE',  ( -1.734723475976807100E-016, 1.000000000000000000, -0.0000000000000000000 ) ) ;
#122 = CARTESIAN_POINT ( 'NONE',  ( -10.00000000000000000, 5.000000000000001800, 1000.000000000000000 ) ) ;
#123 = DIRECTION ( 'NONE',  ( 1.734723475976807100E-016, -1.000000000000000000, 0.0000000000000000000 ) ) ;
#124 = CARTESIAN_POINT ( 'NONE',  ( 10.00000000000000000, 5.000000000000000000, -1000.000000000000000 ) ) ;
#125 = LINE ( 'NONE', #135, #23 ) ;
#126 = CARTESIAN_POINT ( 'NONE',  ( -10.00000000000000000, 5.000000000000001800, 1000.000000000000000 ) ) ;
#127 = CARTESIAN_POINT ( 'NONE',  ( 0.0000000000000000000, 0.0000000000000000000, -1000.000000000000000 ) ) ;
#128 = LINE ( 'NONE', #122, #13 ) ;
#129 = DIRECTION ( 'NONE',  ( -0.0000000000000000000, 0.0000000000000000000, 1.000000000000000000 ) ) ;
#130 = DIRECTION ( 'NONE',  ( -0.0000000000000000000, -0.0000000000000000000, -1.000000000000000000 ) ) ;
#131 = DIRECTION ( 'NONE',  ( 1.000000000000000000, -8.673617379884035500E-017, 0.0000000000000000000 ) ) ;
#132 = PLANE ( 'NONE',  #22 ) ;
#133 = CARTESIAN_POINT ( 'NONE',  ( 10.00000000000000200, -5.000000000000000000, 1000.000000000000000 ) ) ;
#134 = CARTESIAN_POINT ( 'NONE',  ( -10.00000000000000000, 5.000000000000001800, 1000.000000000000000 ) ) ;
#135 = CARTESIAN_POINT ( 'NONE',  ( -10.00000000000000000, 5.000000000000001800, -1000.000000000000000 ) ) ;
#136 = CARTESIAN_POINT ( 'NONE',  ( 10.00000000000000000, 5.000000000000000000, 1000.000000000000000 ) ) ;
#137 = DIRECTION ( 'NONE',  ( 1.000000000000000000, 0.0000000000000000000, 0.0000000000000000000 ) ) ;
#138 = CARTESIAN_POINT ( 'NONE',  ( 10.00000000000000000, 5.000000000000000000, 1000.000000000000000 ) ) ;
#139 = VERTEX_POINT ( 'NONE', #96 ) ;
#140 = VERTEX_POINT ( 'NONE', #95 ) ;
#141 = VERTEX_POINT ( 'NONE', #94 ) ;
#142 = VERTEX_POINT ( 'NONE', #92 ) ;
#143 = VERTEX_POINT ( 'NONE', #156 ) ;
#144 = VERTEX_POINT ( 'NONE', #157 ) ;
#145 = VERTEX_POINT ( 'NONE', #158 ) ;
#146 = VERTEX_POINT ( 'NONE', #168 ) ;
#147 = ORIENTED_EDGE ( 'NONE', *, *, #74, .F. ) ;
#148 = ORIENTED_EDGE ( 'NONE', *, *, #89, .F. ) ;
#149 = ORIENTED_EDGE ( 'NONE', *, *, #83, .F. ) ;
#150 = ORIENTED_EDGE ( 'NONE', *, *, #86, .F. ) ;
#151 = ORIENTED_EDGE ( 'NONE', *, *, #69, .F. ) ;
#152 = ORIENTED_EDGE ( 'NONE', *, *, #78, .F. ) ;
#153 = ORIENTED_EDGE ( 'NONE', *, *, #82, .T. ) ;
#154 = ORIENTED_EDGE ( 'NONE', *, *, #74, .T. ) ;
#155 = ORIENTED_EDGE ( 'NONE', *, *, #66, .T. ) ;
#156 = CARTESIAN_POINT ( 'NONE',  ( 10.00000000000000200, -5.000000000000000000, 1000.000000000000000 ) ) ;
#157 = CARTESIAN_POINT ( 'NONE',  ( -10.00000000000000000, 5.000000000000001800, 1000.000000000000000 ) ) ;
#158 = CARTESIAN_POINT ( 'NONE',  ( -10.00000000000000000, -5.000000000000001800, -1000.000000000000000 ) ) ;
#159 = LINE ( 'NONE', #192, #19 ) ;
#160 = ORIENTED_EDGE ( 'NONE', *, *, #79, .T. ) ;
#161 = CARTESIAN_POINT ( 'NONE',  ( -10.00000000000000000, 5.000000000000001800, 1000.000000000000000 ) ) ;
#162 = ORIENTED_EDGE ( 'NONE', *, *, #85, .T. ) ;
#163 = ORIENTED_EDGE ( 'NONE', *, *, #75, .T. ) ;
#164 = ORIENTED_EDGE ( 'NONE', *, *, #84, .F. ) ;
#165 = ORIENTED_EDGE ( 'NONE', *, *, #75, .F. ) ;
#166 = ORIENTED_EDGE ( 'NONE', *, *, #85, .F. ) ;
#167 = EDGE_LOOP ( 'NONE', ( #169, #164, #165, #162 ) ) ;
#168 = CARTESIAN_POINT ( 'NONE',  ( -10.00000000000000000, 5.000000000000001800, -1000.000000000000000 ) ) ;
#169 = ORIENTED_EDGE ( 'NONE', *, *, #86, .T. ) ;
#170 = ORIENTED_EDGE ( 'NONE', *, *, #82, .F. ) ;
#171 = ORIENTED_EDGE ( 'NONE', *, *, #89, .T. ) ;
#172 = ORIENTED_EDGE ( 'NONE', *, *, #78, .T. ) ;
#173 = ORIENTED_EDGE ( 'NONE', *, *, #84, .T. ) ;
#174 = ORIENTED_EDGE ( 'NONE', *, *, #83, .T. ) ;
#175 = EDGE_LOOP ( 'NONE', ( #174, #166, #170, #171 ) ) ;
#176 = EDGE_LOOP ( 'NONE', ( #172, #148, #147, #155 ) ) ;
#177 = EDGE_LOOP ( 'NONE', ( #182, #181, #180, #173 ) ) ;
#178 = EDGE_LOOP ( 'NONE', ( #160, #154, #153, #163 ) ) ;
#179 = EDGE_LOOP ( 'NONE', ( #151, #150, #149, #152 ) ) ;
#180 = ORIENTED_EDGE ( 'NONE', *, *, #79, .F. ) ;
#181 = ORIENTED_EDGE ( 'NONE', *, *, #66, .F. ) ;
#182 = ORIENTED_EDGE ( 'NONE', *, *, #69, .T. ) ;
#183 = LINE ( 'NONE', #184, #32 ) ;
#184 = CARTESIAN_POINT ( 'NONE',  ( -10.00000000000000000, -5.000000000000001800, 1000.000000000000000 ) ) ;
#185 = DIRECTION ( 'NONE',  ( -0.0000000000000000000, -0.0000000000000000000, -1.000000000000000000 ) ) ;
#186 = PLANE ( 'NONE',  #35 ) ;
#187 = LINE ( 'NONE', #161, #36 ) ;
#188 = CARTESIAN_POINT ( 'NONE',  ( -10.00000000000000000, -5.000000000000001800, -1000.000000000000000 ) ) ;
#189 = LINE ( 'NONE', #188, #29 ) ;
#190 = DIRECTION ( 'NONE',  ( -1.000000000000000000, 8.673617379884035500E-017, -0.0000000000000000000 ) ) ;
#191 = DIRECTION ( 'NONE',  ( 1.000000000000000000, 8.673617379884034200E-017, 0.0000000000000000000 ) ) ;
#192 = CARTESIAN_POINT ( 'NONE',  ( -10.00000000000000000, 5.000000000000001800, 1000.000000000000000 ) ) ;
#193 = LINE ( 'NONE', #110, #12 ) ;
#194 = LINE ( 'NONE', #195, #17 ) ;
#195 = CARTESIAN_POINT ( 'NONE',  ( -10.00000000000000000, -5.000000000000001800, 1000.000000000000000 ) ) ;
#196 = DIRECTION ( 'NONE',  ( 1.000000000000000000, 0.0000000000000000000, -0.0000000000000000000 ) ) ;
#197 = DIRECTION ( 'NONE',  ( 1.000000000000000000, 8.673617379884034200E-017, 0.0000000000000000000 ) ) ;
#198 =( LENGTH_UNIT ( ) NAMED_UNIT ( * ) SI_UNIT ( .MILLI., .METRE. ) );
#199 =( NAMED_UNIT ( * ) PLANE_ANGLE_UNIT ( ) SI_UNIT ( $, .RADIAN. ) );
#200 =( NAMED_UNIT ( * ) SI_UNIT ( $, .STERADIAN. ) SOLID_ANGLE_UNIT ( ) );
#201 = APPLICATION_PROTOCOL_DEFINITION ( 'international standard', 'config_control_design', 1994, #48 ) ;
#202 = CARTESIAN_POINT ( 'NONE',  ( 0.0000000000000000000, 0.0000000000000000000, 0.0000000000000000000 ) ) ;
#203 = DIRECTION ( 'NONE',  ( 0.0000000000000000000, 0.0000000000000000000, 1.000000000000000000 ) ) ;
#204 = DIRECTION ( 'NONE',  ( 1.000000000000000000, 0.0000000000000000000, 0.0000000000000000000 ) ) ;
#205 = SHAPE_DEFINITION_REPRESENTATION ( #51, #55 ) ;
#206 = MECHANICAL_CONTEXT ( 'NONE', #48, 'mechanical' ) ;
#207 = PERSON_AND_ORGANIZATION ( #56, #34 ) ;
#208 = PERSON_AND_ORGANIZATION_ROLE ( 'design_owner' ) ;
#209 = APPLICATION_PROTOCOL_DEFINITION ( 'international standard', 'config_control_design', 1994, #47 ) ;
#210 = PERSON_AND_ORGANIZATION ( #56, #34 ) ;
#211 = APPROVAL_STATUS ( 'not_yet_approved' ) ;
#212 = APPROVAL_ROLE ( '' ) ;
#213 = DATE_AND_TIME ( #37, #70 ) ;
#214 = APPROVAL_DATE_TIME ( #213, #72 ) ;
#215 = PERSON_AND_ORGANIZATION ( #56, #34 ) ;
#216 = PERSON_AND_ORGANIZATION_ROLE ( 'creator' ) ;
#217 = DATE_AND_TIME ( #21, #73 ) ;
#218 = DATE_TIME_ROLE ( 'creation_date' ) ;
#219 = PERSON_AND_ORGANIZATION ( #56, #34 ) ;
#220 = APPROVAL_STATUS ( 'not_yet_approved' ) ;
#221 = APPROVAL_ROLE ( '' ) ;
#222 = DATE_AND_TIME ( #24, #62 ) ;
#223 = APPROVAL_DATE_TIME ( #222, #64 ) ;
#224 = PERSON_AND_ORGANIZATION ( #56, #34 ) ;
#225 = PERSON_AND_ORGANIZATION_ROLE ( 'creator' ) ;
#226 = PERSON_AND_ORGANIZATION ( #56, #34 ) ;
#227 = PERSON_AND_ORGANIZATION_ROLE ( 'design_supplier' ) ;
#228 = SECURITY_CLASSIFICATION_LEVEL ( 'unclassified' ) ;
#229 = PERSON_AND_ORGANIZATION ( #56, #34 ) ;
#230 = PERSON_AND_ORGANIZATION_ROLE ( 'classification_officer' ) ;
#231 = DATE_AND_TIME ( #30, #58 ) ;
#232 = DATE_TIME_ROLE ( 'classification_date' ) ;
#233 = PERSON_AND_ORGANIZATION ( #56, #34 ) ;
#234 = APPROVAL_STATUS ( 'not_yet_approved' ) ;
#235 = APPROVAL_ROLE ( '' ) ;
#236 = DATE_AND_TIME ( #16, #77 ) ;
#237 = APPROVAL_DATE_TIME ( #236, #80 ) ;
ENDSEC;
END-ISO-10303-21;
