ISO-10303-21;
HEADER;
FILE_DESCRIPTION (( 'STEP AP203' ),
    '1' );
FILE_NAME ('ª®3D.STEP',
    '2013-05-09T05:22:30',
    ( '11sw' ),
    ( '^LQ»¢®ïÐ' ),
    'SwSTEP 2.0',
    'SolidWorks 2012',
    '' );
FILE_SCHEMA (( 'CONFIG_CONTROL_DESIGN' ));
ENDSEC;

DATA;
#1 = COORDINATED_UNIVERSAL_TIME_OFFSET ( 9, 0, .AHEAD. ) ;
#2 = VECTOR ( 'NONE', #97, 1000.000000000000000 ) ;
#3 = FACE_OUTER_BOUND ( 'NONE', #95, .T. ) ;
#4 = VECTOR ( 'NONE', #178, 1000.000000000000000 ) ;
#5 = AXIS2_PLACEMENT_3D ( 'NONE', #110, #111, #112 ) ;
#6 = AXIS2_PLACEMENT_3D ( 'NONE', #184, #185, #186 ) ;
#7 = FACE_OUTER_BOUND ( 'NONE', #94, .T. ) ;
#8 = COORDINATED_UNIVERSAL_TIME_OFFSET ( 9, 0, .AHEAD. ) ;
#9 = COORDINATED_UNIVERSAL_TIME_OFFSET ( 9, 0, .AHEAD. ) ;
#10 = ORGANIZATION ( 'UNSPECIFIED', 'UNSPECIFIED', '' ) ;
#11 = AXIS2_PLACEMENT_3D ( 'NONE', #202, #203, #204 ) ;
#12 = CC_DESIGN_SECURITY_CLASSIFICATION ( #14, ( #18 ) ) ;
#13 = CLOSED_SHELL ( 'NONE', ( #89, #79, #78, #69, #81, #80 ) ) ;
#14 = SECURITY_CLASSIFICATION ( '', '', #228 ) ;
#15 = AXIS2_PLACEMENT_3D ( 'NONE', #123, #124, #120 ) ;
#16 = VECTOR ( 'NONE', #107, 1000.000000000000000 ) ;
#17 = VECTOR ( 'NONE', #180, 1000.000000000000000 ) ;
#18 = PRODUCT_DEFINITION_FORMATION_WITH_SPECIFIED_SOURCE ( 'ANY', '', #54, .NOT_KNOWN. ) ;
#19 = VECTOR ( 'NONE', #138, 1000.000000000000000 ) ;
#20 = CALENDAR_DATE ( 2013, 9, 5 ) ;
#21 = VECTOR ( 'NONE', #183, 1000.000000000000000 ) ;
#22 = COORDINATED_UNIVERSAL_TIME_OFFSET ( 9, 0, .AHEAD. ) ;
#23 = AXIS2_PLACEMENT_3D ( 'NONE', #125, #126, #141 ) ;
#24 = VECTOR ( 'NONE', #109, 1000.000000000000000 ) ;
#25 = CALENDAR_DATE ( 2013, 9, 5 ) ;
#26 = AXIS2_PLACEMENT_3D ( 'NONE', #127, #121, #134 ) ;
#27 = FACE_OUTER_BOUND ( 'NONE', #96, .T. ) ;
#28 = CC_DESIGN_APPROVAL ( #62, ( #18 ) ) ;
#29 = VECTOR ( 'NONE', #132, 1000.000000000000000 ) ;
#30 = VECTOR ( 'NONE', #128, 1000.000000000000000 ) ;
#31 = FACE_OUTER_BOUND ( 'NONE', #149, .T. ) ;
#32 = CALENDAR_DATE ( 2013, 9, 5 ) ;
#33 = CC_DESIGN_APPROVAL ( #90, ( #60 ) ) ;
#34 = APPROVAL_PERSON_ORGANIZATION ( #210, #90, #212 ) ;
#35 = VECTOR ( 'NONE', #189, 1000.000000000000000 ) ;
#36 = APPROVAL_PERSON_ORGANIZATION ( #219, #62, #221 ) ;
#37 = FACE_OUTER_BOUND ( 'NONE', #100, .T. ) ;
#38 = APPROVAL_PERSON_ORGANIZATION ( #233, #72, #235 ) ;
#39 = CC_DESIGN_APPROVAL ( #72, ( #14 ) ) ;
#40 = AXIS2_PLACEMENT_3D ( 'NONE', #115, #116, #118 ) ;
#41 = VECTOR ( 'NONE', #143, 1000.000000000000000 ) ;
#42 = VECTOR ( 'NONE', #101, 1000.000000000000000 ) ;
#43 = CALENDAR_DATE ( 2013, 9, 5 ) ;
#44 = COORDINATED_UNIVERSAL_TIME_OFFSET ( 9, 0, .AHEAD. ) ;
#45 = CALENDAR_DATE ( 2013, 9, 5 ) ;
#46 = FACE_OUTER_BOUND ( 'NONE', #92, .T. ) ;
#47 = APPLICATION_CONTEXT ( 'configuration controlled 3d designs of mechanical parts and assemblies' ) ;
#48 = APPLICATION_CONTEXT ( 'configuration controlled 3d designs of mechanical parts and assemblies' ) ;
#49 = DESIGN_CONTEXT ( 'detailed design', #48, 'design' ) ;
#50 = PRODUCT_DEFINITION_SHAPE ( 'NONE', 'NONE',  #60 ) ;
#51 = MANIFOLD_SOLID_BREP ( 'ÎÞ½ - µoµ1', #13 ) ;
#52 =( GEOMETRIC_REPRESENTATION_CONTEXT ( 3 ) GLOBAL_UNCERTAINTY_ASSIGNED_CONTEXT ( ( #55 ) ) GLOBAL_UNIT_ASSIGNED_CONTEXT ( ( #198, #199, #200 ) ) REPRESENTATION_CONTEXT ( 'NONE', 'WORKASPACE' ) );
#53 = PERSON ( 'UNSPECIFIED', 'UNSPECIFIED', 'UNSPECIFIED', ('UNSPECIFIED'), ('UNSPECIFIED'), ('UNSPECIFIED') ) ;
#54 = PRODUCT ( 'ª®3D', 'ª®3D', '', ( #206 ) ) ;
#55 = UNCERTAINTY_MEASURE_WITH_UNIT (LENGTH_MEASURE( 1.000000000000000100E-005 ), #198, 'distance_accuracy_value', 'NONE');
#56 = ADVANCED_BREP_SHAPE_REPRESENTATION ( 'ª®3D', ( #51, #11 ), #52 ) ;
#57 = EDGE_CURVE ( 'NONE', #174, #172, #99, .T. ) ;
#58 = EDGE_CURVE ( 'NONE', #170, #174, #103, .T. ) ;
#59 = CC_DESIGN_PERSON_AND_ORGANIZATION_ASSIGNMENT ( #207, #208, ( #54 ) ) ;
#60 = PRODUCT_DEFINITION ( 'UNKNOWN', '', #18, #49 ) ;
#61 = LOCAL_TIME ( 14, 22, 30.00000000000000000, #8 ) ;
#62 = APPROVAL ( #220, 'UNSPECIFIED' ) ;
#63 = LOCAL_TIME ( 14, 22, 30.00000000000000000, #22 ) ;
#64 = CC_DESIGN_PERSON_AND_ORGANIZATION_ASSIGNMENT ( #215, #216, ( #60 ) ) ;
#65 = LOCAL_TIME ( 14, 22, 30.00000000000000000, #1 ) ;
#66 = CC_DESIGN_DATE_AND_TIME_ASSIGNMENT ( #217, #218, ( #60 ) ) ;
#67 = EDGE_CURVE ( 'NONE', #169, #175, #104, .T. ) ;
#68 = EDGE_CURVE ( 'NONE', #168, #173, #108, .T. ) ;
#69 = ADVANCED_FACE ( 'NONE', ( #7 ), #102, .F. ) ;
#70 = CC_DESIGN_PERSON_AND_ORGANIZATION_ASSIGNMENT ( #226, #227, ( #18 ) ) ;
#71 = CC_DESIGN_DATE_AND_TIME_ASSIGNMENT ( #231, #232, ( #14 ) ) ;
#72 = APPROVAL ( #234, 'UNSPECIFIED' ) ;
#73 = LOCAL_TIME ( 14, 22, 30.00000000000000000, #44 ) ;
#74 = PRODUCT_RELATED_PRODUCT_CATEGORY ( 'detail', '', ( #54 ) ) ;
#75 = LOCAL_TIME ( 14, 22, 30.00000000000000000, #9 ) ;
#76 = CC_DESIGN_PERSON_AND_ORGANIZATION_ASSIGNMENT ( #229, #230, ( #14 ) ) ;
#77 = CC_DESIGN_PERSON_AND_ORGANIZATION_ASSIGNMENT ( #224, #225, ( #18 ) ) ;
#78 = ADVANCED_FACE ( 'NONE', ( #3 ), #113, .F. ) ;
#79 = ADVANCED_FACE ( 'NONE', ( #37 ), #119, .F. ) ;
#80 = ADVANCED_FACE ( 'NONE', ( #31 ), #122, .F. ) ;
#81 = ADVANCED_FACE ( 'NONE', ( #46 ), #129, .T. ) ;
#82 = EDGE_CURVE ( 'NONE', #169, #171, #136, .T. ) ;
#83 = EDGE_CURVE ( 'NONE', #173, #172, #130, .T. ) ;
#84 = EDGE_CURVE ( 'NONE', #175, #170, #145, .T. ) ;
#85 = EDGE_CURVE ( 'NONE', #174, #169, #117, .T. ) ;
#86 = EDGE_CURVE ( 'NONE', #170, #173, #150, .T. ) ;
#87 = EDGE_CURVE ( 'NONE', #172, #171, #177, .T. ) ;
#88 = EDGE_CURVE ( 'NONE', #171, #168, #181, .T. ) ;
#89 = ADVANCED_FACE ( 'NONE', ( #27 ), #137, .F. ) ;
#90 = APPROVAL ( #211, 'UNSPECIFIED' ) ;
#91 = EDGE_CURVE ( 'NONE', #175, #168, #187, .T. ) ;
#92 = EDGE_LOOP ( 'NONE', ( #146, #163, #151, #135 ) ) ;
#93 = CARTESIAN_POINT ( 'NONE',  ( 7.500000000000000000, 5.000000000000000000, 1000.000000000000000 ) ) ;
#94 = EDGE_LOOP ( 'NONE', ( #153, #144, #155, #152 ) ) ;
#95 = EDGE_LOOP ( 'NONE', ( #156, #154, #157, #160 ) ) ;
#96 = EDGE_LOOP ( 'NONE', ( #142, #166, #165, #147 ) ) ;
#97 = DIRECTION ( 'NONE',  ( -0.0000000000000000000, -0.0000000000000000000, -1.000000000000000000 ) ) ;
#98 = CARTESIAN_POINT ( 'NONE',  ( 7.500000000000000000, 5.000000000000000000, 1000.000000000000000 ) ) ;
#99 = LINE ( 'NONE', #98, #2 ) ;
#100 = EDGE_LOOP ( 'NONE', ( #176, #159, #164, #158 ) ) ;
#101 = DIRECTION ( 'NONE',  ( -8.673617379884035500E-017, 1.000000000000000000, -0.0000000000000000000 ) ) ;
#102 = PLANE ( 'NONE',  #5 ) ;
#103 = LINE ( 'NONE', #93, #42 ) ;
#104 = LINE ( 'NONE', #105, #16 ) ;
#105 = CARTESIAN_POINT ( 'NONE',  ( -7.500000000000000000, 5.000000000000000000, 1000.000000000000000 ) ) ;
#106 = CARTESIAN_POINT ( 'NONE',  ( -7.500000000000000000, -5.000000000000000000, -1000.000000000000000 ) ) ;
#107 = DIRECTION ( 'NONE',  ( 0.0000000000000000000, -1.000000000000000000, 0.0000000000000000000 ) ) ;
#108 = LINE ( 'NONE', #106, #24 ) ;
#109 = DIRECTION ( 'NONE',  ( 1.000000000000000000, 0.0000000000000000000, 0.0000000000000000000 ) ) ;
#110 = CARTESIAN_POINT ( 'NONE',  ( -7.500000000000000000, 5.000000000000000000, 1000.000000000000000 ) ) ;
#111 = DIRECTION ( 'NONE',  ( 0.0000000000000000000, -1.000000000000000000, 0.0000000000000000000 ) ) ;
#112 = DIRECTION ( 'NONE',  ( 0.0000000000000000000, -0.0000000000000000000, -1.000000000000000000 ) ) ;
#113 = PLANE ( 'NONE',  #40 ) ;
#114 = CARTESIAN_POINT ( 'NONE',  ( -7.500000000000000000, 5.000000000000000000, 1000.000000000000000 ) ) ;
#115 = CARTESIAN_POINT ( 'NONE',  ( 7.500000000000000000, 5.000000000000000000, 1000.000000000000000 ) ) ;
#116 = DIRECTION ( 'NONE',  ( -1.000000000000000000, -8.673617379884035500E-017, 0.0000000000000000000 ) ) ;
#117 = LINE ( 'NONE', #133, #41 ) ;
#118 = DIRECTION ( 'NONE',  ( 8.673617379884035500E-017, -1.000000000000000000, 0.0000000000000000000 ) ) ;
#119 = PLANE ( 'NONE',  #15 ) ;
#120 = DIRECTION ( 'NONE',  ( 0.0000000000000000000, -0.0000000000000000000, 1.000000000000000000 ) ) ;
#121 = DIRECTION ( 'NONE',  ( -0.0000000000000000000, 0.0000000000000000000, 1.000000000000000000 ) ) ;
#122 = PLANE ( 'NONE',  #23 ) ;
#123 = CARTESIAN_POINT ( 'NONE',  ( -7.500000000000000000, -5.000000000000000000, 1000.000000000000000 ) ) ;
#124 = DIRECTION ( 'NONE',  ( 0.0000000000000000000, 1.000000000000000000, 0.0000000000000000000 ) ) ;
#125 = CARTESIAN_POINT ( 'NONE',  ( 0.0000000000000000000, 0.0000000000000000000, -1000.000000000000000 ) ) ;
#126 = DIRECTION ( 'NONE',  ( -0.0000000000000000000, 0.0000000000000000000, 1.000000000000000000 ) ) ;
#127 = CARTESIAN_POINT ( 'NONE',  ( 0.0000000000000000000, 0.0000000000000000000, 1000.000000000000000 ) ) ;
#128 = DIRECTION ( 'NONE',  ( 1.000000000000000000, 0.0000000000000000000, 0.0000000000000000000 ) ) ;
#129 = PLANE ( 'NONE',  #26 ) ;
#130 = LINE ( 'NONE', #139, #29 ) ;
#131 = CARTESIAN_POINT ( 'NONE',  ( -7.500000000000000000, -5.000000000000000000, 1000.000000000000000 ) ) ;
#132 = DIRECTION ( 'NONE',  ( -8.673617379884035500E-017, 1.000000000000000000, -0.0000000000000000000 ) ) ;
#133 = CARTESIAN_POINT ( 'NONE',  ( -7.500000000000000000, 5.000000000000000000, 1000.000000000000000 ) ) ;
#134 = DIRECTION ( 'NONE',  ( 1.000000000000000000, 0.0000000000000000000, 0.0000000000000000000 ) ) ;
#135 = ORIENTED_EDGE ( 'NONE', *, *, #85, .T. ) ;
#136 = LINE ( 'NONE', #114, #19 ) ;
#137 = PLANE ( 'NONE',  #6 ) ;
#138 = DIRECTION ( 'NONE',  ( -0.0000000000000000000, -0.0000000000000000000, -1.000000000000000000 ) ) ;
#139 = CARTESIAN_POINT ( 'NONE',  ( 7.500000000000000000, 5.000000000000000000, -1000.000000000000000 ) ) ;
#140 = CARTESIAN_POINT ( 'NONE',  ( 7.500000000000000900, -5.000000000000000000, 1000.000000000000000 ) ) ;
#141 = DIRECTION ( 'NONE',  ( 1.000000000000000000, 0.0000000000000000000, 0.0000000000000000000 ) ) ;
#142 = ORIENTED_EDGE ( 'NONE', *, *, #88, .T. ) ;
#143 = DIRECTION ( 'NONE',  ( -1.000000000000000000, -0.0000000000000000000, -0.0000000000000000000 ) ) ;
#144 = ORIENTED_EDGE ( 'NONE', *, *, #82, .F. ) ;
#145 = LINE ( 'NONE', #131, #30 ) ;
#146 = ORIENTED_EDGE ( 'NONE', *, *, #67, .T. ) ;
#147 = ORIENTED_EDGE ( 'NONE', *, *, #82, .T. ) ;
#148 = ORIENTED_EDGE ( 'NONE', *, *, #88, .F. ) ;
#149 = EDGE_LOOP ( 'NONE', ( #148, #162, #167, #161 ) ) ;
#150 = LINE ( 'NONE', #140, #4 ) ;
#151 = ORIENTED_EDGE ( 'NONE', *, *, #58, .T. ) ;
#152 = ORIENTED_EDGE ( 'NONE', *, *, #57, .T. ) ;
#153 = ORIENTED_EDGE ( 'NONE', *, *, #87, .T. ) ;
#154 = ORIENTED_EDGE ( 'NONE', *, *, #57, .F. ) ;
#155 = ORIENTED_EDGE ( 'NONE', *, *, #85, .F. ) ;
#156 = ORIENTED_EDGE ( 'NONE', *, *, #83, .T. ) ;
#157 = ORIENTED_EDGE ( 'NONE', *, *, #58, .F. ) ;
#158 = ORIENTED_EDGE ( 'NONE', *, *, #91, .T. ) ;
#159 = ORIENTED_EDGE ( 'NONE', *, *, #86, .F. ) ;
#160 = ORIENTED_EDGE ( 'NONE', *, *, #86, .T. ) ;
#161 = ORIENTED_EDGE ( 'NONE', *, *, #68, .F. ) ;
#162 = ORIENTED_EDGE ( 'NONE', *, *, #87, .F. ) ;
#163 = ORIENTED_EDGE ( 'NONE', *, *, #84, .T. ) ;
#164 = ORIENTED_EDGE ( 'NONE', *, *, #84, .F. ) ;
#165 = ORIENTED_EDGE ( 'NONE', *, *, #67, .F. ) ;
#166 = ORIENTED_EDGE ( 'NONE', *, *, #91, .F. ) ;
#167 = ORIENTED_EDGE ( 'NONE', *, *, #83, .F. ) ;
#168 = VERTEX_POINT ( 'NONE', #190 ) ;
#169 = VERTEX_POINT ( 'NONE', #191 ) ;
#170 = VERTEX_POINT ( 'NONE', #192 ) ;
#171 = VERTEX_POINT ( 'NONE', #193 ) ;
#172 = VERTEX_POINT ( 'NONE', #194 ) ;
#173 = VERTEX_POINT ( 'NONE', #195 ) ;
#174 = VERTEX_POINT ( 'NONE', #196 ) ;
#175 = VERTEX_POINT ( 'NONE', #197 ) ;
#176 = ORIENTED_EDGE ( 'NONE', *, *, #68, .T. ) ;
#177 = LINE ( 'NONE', #179, #17 ) ;
#178 = DIRECTION ( 'NONE',  ( -0.0000000000000000000, -0.0000000000000000000, -1.000000000000000000 ) ) ;
#179 = CARTESIAN_POINT ( 'NONE',  ( -7.500000000000000000, 5.000000000000000000, -1000.000000000000000 ) ) ;
#180 = DIRECTION ( 'NONE',  ( -1.000000000000000000, -0.0000000000000000000, -0.0000000000000000000 ) ) ;
#181 = LINE ( 'NONE', #182, #21 ) ;
#182 = CARTESIAN_POINT ( 'NONE',  ( -7.500000000000000000, 5.000000000000000000, -1000.000000000000000 ) ) ;
#183 = DIRECTION ( 'NONE',  ( 0.0000000000000000000, -1.000000000000000000, 0.0000000000000000000 ) ) ;
#184 = CARTESIAN_POINT ( 'NONE',  ( -7.500000000000000000, 5.000000000000000000, 1000.000000000000000 ) ) ;
#185 = DIRECTION ( 'NONE',  ( 1.000000000000000000, 0.0000000000000000000, -0.0000000000000000000 ) ) ;
#186 = DIRECTION ( 'NONE',  ( -0.0000000000000000000, 0.0000000000000000000, -1.000000000000000000 ) ) ;
#187 = LINE ( 'NONE', #188, #35 ) ;
#188 = CARTESIAN_POINT ( 'NONE',  ( -7.500000000000000000, -5.000000000000000000, 1000.000000000000000 ) ) ;
#189 = DIRECTION ( 'NONE',  ( -0.0000000000000000000, -0.0000000000000000000, -1.000000000000000000 ) ) ;
#190 = CARTESIAN_POINT ( 'NONE',  ( -7.500000000000000000, -5.000000000000000000, -1000.000000000000000 ) ) ;
#191 = CARTESIAN_POINT ( 'NONE',  ( -7.500000000000000000, 5.000000000000000000, 1000.000000000000000 ) ) ;
#192 = CARTESIAN_POINT ( 'NONE',  ( 7.500000000000000900, -5.000000000000000000, 1000.000000000000000 ) ) ;
#193 = CARTESIAN_POINT ( 'NONE',  ( -7.500000000000000000, 5.000000000000000000, -1000.000000000000000 ) ) ;
#194 = CARTESIAN_POINT ( 'NONE',  ( 7.500000000000000000, 5.000000000000000000, -1000.000000000000000 ) ) ;
#195 = CARTESIAN_POINT ( 'NONE',  ( 7.500000000000000900, -5.000000000000000000, -1000.000000000000000 ) ) ;
#196 = CARTESIAN_POINT ( 'NONE',  ( 7.500000000000000000, 5.000000000000000000, 1000.000000000000000 ) ) ;
#197 = CARTESIAN_POINT ( 'NONE',  ( -7.500000000000000000, -5.000000000000000000, 1000.000000000000000 ) ) ;
#198 =( LENGTH_UNIT ( ) NAMED_UNIT ( * ) SI_UNIT ( .MILLI., .METRE. ) );
#199 =( NAMED_UNIT ( * ) PLANE_ANGLE_UNIT ( ) SI_UNIT ( $, .RADIAN. ) );
#200 =( NAMED_UNIT ( * ) SI_UNIT ( $, .STERADIAN. ) SOLID_ANGLE_UNIT ( ) );
#201 = APPLICATION_PROTOCOL_DEFINITION ( 'international standard', 'config_control_design', 1994, #47 ) ;
#202 = CARTESIAN_POINT ( 'NONE',  ( 0.0000000000000000000, 0.0000000000000000000, 0.0000000000000000000 ) ) ;
#203 = DIRECTION ( 'NONE',  ( 0.0000000000000000000, 0.0000000000000000000, 1.000000000000000000 ) ) ;
#204 = DIRECTION ( 'NONE',  ( 1.000000000000000000, 0.0000000000000000000, 0.0000000000000000000 ) ) ;
#205 = SHAPE_DEFINITION_REPRESENTATION ( #50, #56 ) ;
#206 = MECHANICAL_CONTEXT ( 'NONE', #47, 'mechanical' ) ;
#207 = PERSON_AND_ORGANIZATION ( #53, #10 ) ;
#208 = PERSON_AND_ORGANIZATION_ROLE ( 'design_owner' ) ;
#209 = APPLICATION_PROTOCOL_DEFINITION ( 'international standard', 'config_control_design', 1994, #48 ) ;
#210 = PERSON_AND_ORGANIZATION ( #53, #10 ) ;
#211 = APPROVAL_STATUS ( 'not_yet_approved' ) ;
#212 = APPROVAL_ROLE ( '' ) ;
#213 = DATE_AND_TIME ( #20, #61 ) ;
#214 = APPROVAL_DATE_TIME ( #213, #90 ) ;
#215 = PERSON_AND_ORGANIZATION ( #53, #10 ) ;
#216 = PERSON_AND_ORGANIZATION_ROLE ( 'creator' ) ;
#217 = DATE_AND_TIME ( #32, #65 ) ;
#218 = DATE_TIME_ROLE ( 'creation_date' ) ;
#219 = PERSON_AND_ORGANIZATION ( #53, #10 ) ;
#220 = APPROVAL_STATUS ( 'not_yet_approved' ) ;
#221 = APPROVAL_ROLE ( '' ) ;
#222 = DATE_AND_TIME ( #43, #63 ) ;
#223 = APPROVAL_DATE_TIME ( #222, #62 ) ;
#224 = PERSON_AND_ORGANIZATION ( #53, #10 ) ;
#225 = PERSON_AND_ORGANIZATION_ROLE ( 'creator' ) ;
#226 = PERSON_AND_ORGANIZATION ( #53, #10 ) ;
#227 = PERSON_AND_ORGANIZATION_ROLE ( 'design_supplier' ) ;
#228 = SECURITY_CLASSIFICATION_LEVEL ( 'unclassified' ) ;
#229 = PERSON_AND_ORGANIZATION ( #53, #10 ) ;
#230 = PERSON_AND_ORGANIZATION_ROLE ( 'classification_officer' ) ;
#231 = DATE_AND_TIME ( #25, #75 ) ;
#232 = DATE_TIME_ROLE ( 'classification_date' ) ;
#233 = PERSON_AND_ORGANIZATION ( #53, #10 ) ;
#234 = APPROVAL_STATUS ( 'not_yet_approved' ) ;
#235 = APPROVAL_ROLE ( '' ) ;
#236 = DATE_AND_TIME ( #45, #73 ) ;
#237 = APPROVAL_DATE_TIME ( #236, #72 ) ;
ENDSEC;
END-ISO-10303-21;
