ISO-10303-21;
HEADER;
FILE_DESCRIPTION (( 'STEP AP203' ),
    '1' );
FILE_NAME ('C-300-EF-10-10.STEP',
    '2013-05-09T02:44:20',
    ( '11sw' ),
    ( '^LQ»¢®ïÐ' ),
    'SwSTEP 2.0',
    'SolidWorks 2012',
    '' );
FILE_SCHEMA (( 'CONFIG_CONTROL_DESIGN' ));
ENDSEC;

DATA;
#1 = VECTOR ( 'NONE', #107, 1000.000000000000000 ) ;
#2 = FACE_OUTER_BOUND ( 'NONE', #114, .T. ) ;
#3 = VECTOR ( 'NONE', #111, 1000.000000000000000 ) ;
#4 = CLOSED_SHELL ( 'NONE', ( #58, #52, #57, #60, #56, #59 ) ) ;
#5 = PRODUCT_DEFINITION_FORMATION_WITH_SPECIFIED_SOURCE ( 'ANY', '', #90, .NOT_KNOWN. ) ;
#6 = CALENDAR_DATE ( 2013, 9, 5 ) ;
#7 = COORDINATED_UNIVERSAL_TIME_OFFSET ( 9, 0, .AHEAD. ) ;
#8 = CALENDAR_DATE ( 2013, 9, 5 ) ;
#9 = CALENDAR_DATE ( 2013, 9, 5 ) ;
#10 = FACE_OUTER_BOUND ( 'NONE', #115, .T. ) ;
#11 = FACE_OUTER_BOUND ( 'NONE', #118, .T. ) ;
#12 = VECTOR ( 'NONE', #184, 1000.000000000000000 ) ;
#13 = COORDINATED_UNIVERSAL_TIME_OFFSET ( 9, 0, .AHEAD. ) ;
#14 = AXIS2_PLACEMENT_3D ( 'NONE', #103, #102, #101 ) ;
#15 = VECTOR ( 'NONE', #181, 1000.000000000000000 ) ;
#16 = FACE_OUTER_BOUND ( 'NONE', #117, .T. ) ;
#17 = CC_DESIGN_SECURITY_CLASSIFICATION ( #18, ( #5 ) ) ;
#18 = SECURITY_CLASSIFICATION ( '', '', #228 ) ;
#19 = VECTOR ( 'NONE', #98, 1000.000000000000000 ) ;
#20 = ORGANIZATION ( 'UNSPECIFIED', 'UNSPECIFIED', '' ) ;
#21 = VECTOR ( 'NONE', #104, 1000.000000000000000 ) ;
#22 = VECTOR ( 'NONE', #174, 1000.000000000000000 ) ;
#23 = COORDINATED_UNIVERSAL_TIME_OFFSET ( 9, 0, .AHEAD. ) ;
#24 = AXIS2_PLACEMENT_3D ( 'NONE', #169, #170, #171 ) ;
#25 = FACE_OUTER_BOUND ( 'NONE', #116, .T. ) ;
#26 = VECTOR ( 'NONE', #190, 1000.000000000000000 ) ;
#27 = APPROVAL_PERSON_ORGANIZATION ( #210, #81, #212 ) ;
#28 = CC_DESIGN_APPROVAL ( #66, ( #18 ) ) ;
#29 = AXIS2_PLACEMENT_3D ( 'NONE', #157, #158, #159 ) ;
#30 = APPROVAL_PERSON_ORGANIZATION ( #233, #66, #235 ) ;
#31 = CC_DESIGN_APPROVAL ( #81, ( #64 ) ) ;
#32 = CALENDAR_DATE ( 2013, 9, 5 ) ;
#33 = VECTOR ( 'NONE', #94, 1000.000000000000000 ) ;
#34 = APPROVAL_PERSON_ORGANIZATION ( #219, #78, #221 ) ;
#35 = AXIS2_PLACEMENT_3D ( 'NONE', #152, #154, #155 ) ;
#36 = CALENDAR_DATE ( 2013, 9, 5 ) ;
#37 = COORDINATED_UNIVERSAL_TIME_OFFSET ( 9, 0, .AHEAD. ) ;
#38 = CC_DESIGN_APPROVAL ( #78, ( #5 ) ) ;
#39 = AXIS2_PLACEMENT_3D ( 'NONE', #161, #162, #163 ) ;
#40 = AXIS2_PLACEMENT_3D ( 'NONE', #202, #203, #204 ) ;
#41 = VECTOR ( 'NONE', #153, 1000.000000000000000 ) ;
#42 = AXIS2_PLACEMENT_3D ( 'NONE', #165, #166, #167 ) ;
#43 = FACE_OUTER_BOUND ( 'NONE', #119, .T. ) ;
#44 = VECTOR ( 'NONE', #187, 1000.000000000000000 ) ;
#45 = VECTOR ( 'NONE', #178, 1000.000000000000000 ) ;
#46 = COORDINATED_UNIVERSAL_TIME_OFFSET ( 9, 0, .AHEAD. ) ;
#47 = EDGE_CURVE ( 'NONE', #149, #151, #113, .T. ) ;
#48 = EDGE_CURVE ( 'NONE', #146, #147, #109, .T. ) ;
#49 = EDGE_CURVE ( 'NONE', #144, #150, #106, .T. ) ;
#50 = LOCAL_TIME ( 11, 44, 20.00000000000000000, #13 ) ;
#51 = LOCAL_TIME ( 11, 44, 20.00000000000000000, #7 ) ;
#52 = ADVANCED_FACE ( 'NONE', ( #2 ), #110, .F. ) ;
#53 = EDGE_CURVE ( 'NONE', #147, #149, #100, .T. ) ;
#54 = EDGE_CURVE ( 'NONE', #144, #147, #96, .T. ) ;
#55 = EDGE_CURVE ( 'NONE', #150, #145, #93, .T. ) ;
#56 = ADVANCED_FACE ( 'NONE', ( #11 ), #97, .T. ) ;
#57 = ADVANCED_FACE ( 'NONE', ( #10 ), #156, .F. ) ;
#58 = ADVANCED_FACE ( 'NONE', ( #25 ), #160, .F. ) ;
#59 = ADVANCED_FACE ( 'NONE', ( #43 ), #164, .F. ) ;
#60 = ADVANCED_FACE ( 'NONE', ( #16 ), #168, .F. ) ;
#61 = CC_DESIGN_PERSON_AND_ORGANIZATION_ASSIGNMENT ( #229, #230, ( #18 ) ) ;
#62 = CC_DESIGN_DATE_AND_TIME_ASSIGNMENT ( #231, #232, ( #18 ) ) ;
#63 = CC_DESIGN_PERSON_AND_ORGANIZATION_ASSIGNMENT ( #207, #208, ( #90 ) ) ;
#64 = PRODUCT_DEFINITION ( 'UNKNOWN', '', #5, #87 ) ;
#65 = PRODUCT_RELATED_PRODUCT_CATEGORY ( 'detail', '', ( #90 ) ) ;
#66 = APPROVAL ( #234, 'UNSPECIFIED' ) ;
#67 = CC_DESIGN_PERSON_AND_ORGANIZATION_ASSIGNMENT ( #226, #227, ( #5 ) ) ;
#68 = EDGE_CURVE ( 'NONE', #145, #151, #172, .T. ) ;
#69 = EDGE_CURVE ( 'NONE', #148, #146, #176, .T. ) ;
#70 = EDGE_CURVE ( 'NONE', #148, #144, #179, .T. ) ;
#71 = EDGE_CURVE ( 'NONE', #145, #148, #182, .T. ) ;
#72 = EDGE_CURVE ( 'NONE', #150, #149, #185, .T. ) ;
#73 = EDGE_CURVE ( 'NONE', #151, #146, #188, .T. ) ;
#74 = LOCAL_TIME ( 11, 44, 20.00000000000000000, #23 ) ;
#75 = CC_DESIGN_PERSON_AND_ORGANIZATION_ASSIGNMENT ( #224, #225, ( #5 ) ) ;
#76 = LOCAL_TIME ( 11, 44, 20.00000000000000000, #37 ) ;
#77 = CC_DESIGN_PERSON_AND_ORGANIZATION_ASSIGNMENT ( #215, #216, ( #64 ) ) ;
#78 = APPROVAL ( #220, 'UNSPECIFIED' ) ;
#79 = CC_DESIGN_DATE_AND_TIME_ASSIGNMENT ( #217, #218, ( #64 ) ) ;
#80 = LOCAL_TIME ( 11, 44, 20.00000000000000000, #46 ) ;
#81 = APPROVAL ( #211, 'UNSPECIFIED' ) ;
#82 = UNCERTAINTY_MEASURE_WITH_UNIT (LENGTH_MEASURE( 1.000000000000000100E-005 ), #198, 'distance_accuracy_value', 'NONE');
#83 = ADVANCED_BREP_SHAPE_REPRESENTATION ( 'C-300-EF-10-10', ( #88, #40 ), #91 ) ;
#84 = PERSON ( 'UNSPECIFIED', 'UNSPECIFIED', 'UNSPECIFIED', ('UNSPECIFIED'), ('UNSPECIFIED'), ('UNSPECIFIED') ) ;
#85 = APPLICATION_CONTEXT ( 'configuration controlled 3d designs of mechanical parts and assemblies' ) ;
#86 = APPLICATION_CONTEXT ( 'configuration controlled 3d designs of mechanical parts and assemblies' ) ;
#87 = DESIGN_CONTEXT ( 'detailed design', #85, 'design' ) ;
#88 = MANIFOLD_SOLID_BREP ( 'ÎÞ½ - µoµ1', #4 ) ;
#89 = PRODUCT_DEFINITION_SHAPE ( 'NONE', 'NONE',  #64 ) ;
#90 = PRODUCT ( 'C-300-EF-10-10', 'C-300-EF-10-10', '', ( #206 ) ) ;
#91 =( GEOMETRIC_REPRESENTATION_CONTEXT ( 3 ) GLOBAL_UNCERTAINTY_ASSIGNED_CONTEXT ( ( #82 ) ) GLOBAL_UNIT_ASSIGNED_CONTEXT ( ( #198, #199, #200 ) ) REPRESENTATION_CONTEXT ( 'NONE', 'WORKASPACE' ) );
#92 = CARTESIAN_POINT ( 'NONE',  ( -5.000000000000000000, -5.000000000000000900, 1000.000000000000000 ) ) ;
#93 = LINE ( 'NONE', #92, #41 ) ;
#94 = DIRECTION ( 'NONE',  ( -0.0000000000000000000, -0.0000000000000000000, -1.000000000000000000 ) ) ;
#95 = CARTESIAN_POINT ( 'NONE',  ( -5.000000000000000000, 5.000000000000000900, 1000.000000000000000 ) ) ;
#96 = LINE ( 'NONE', #95, #33 ) ;
#97 = PLANE ( 'NONE',  #35 ) ;
#98 = DIRECTION ( 'NONE',  ( 0.0000000000000000000, -1.000000000000000000, 0.0000000000000000000 ) ) ;
#99 = CARTESIAN_POINT ( 'NONE',  ( -5.000000000000000000, 5.000000000000000900, -1000.000000000000000 ) ) ;
#100 = LINE ( 'NONE', #99, #19 ) ;
#101 = DIRECTION ( 'NONE',  ( -1.000000000000000000, -1.734723475976806800E-016, 0.0000000000000000000 ) ) ;
#102 = DIRECTION ( 'NONE',  ( -1.734723475976806800E-016, 1.000000000000000000, 0.0000000000000000000 ) ) ;
#103 = CARTESIAN_POINT ( 'NONE',  ( -5.000000000000000000, -5.000000000000000900, 1000.000000000000000 ) ) ;
#104 = DIRECTION ( 'NONE',  ( 0.0000000000000000000, -1.000000000000000000, 0.0000000000000000000 ) ) ;
#105 = CARTESIAN_POINT ( 'NONE',  ( -5.000000000000000000, 5.000000000000000900, 1000.000000000000000 ) ) ;
#106 = LINE ( 'NONE', #105, #21 ) ;
#107 = DIRECTION ( 'NONE',  ( -1.000000000000000000, 8.673617379884035500E-017, -0.0000000000000000000 ) ) ;
#108 = CARTESIAN_POINT ( 'NONE',  ( -5.000000000000000000, 5.000000000000000900, -1000.000000000000000 ) ) ;
#109 = LINE ( 'NONE', #108, #1 ) ;
#110 = PLANE ( 'NONE',  #14 ) ;
#111 = DIRECTION ( 'NONE',  ( 1.000000000000000000, 1.734723475976806800E-016, 0.0000000000000000000 ) ) ;
#112 = CARTESIAN_POINT ( 'NONE',  ( -5.000000000000000000, -5.000000000000000900, -1000.000000000000000 ) ) ;
#113 = LINE ( 'NONE', #112, #3 ) ;
#114 = EDGE_LOOP ( 'NONE', ( #128, #124, #125, #130 ) ) ;
#115 = EDGE_LOOP ( 'NONE', ( #129, #132, #131, #136 ) ) ;
#116 = EDGE_LOOP ( 'NONE', ( #143, #122, #140, #120 ) ) ;
#117 = EDGE_LOOP ( 'NONE', ( #139, #135, #138, #137 ) ) ;
#118 = EDGE_LOOP ( 'NONE', ( #123, #121, #127, #134 ) ) ;
#119 = EDGE_LOOP ( 'NONE', ( #133, #141, #142, #126 ) ) ;
#120 = ORIENTED_EDGE ( 'NONE', *, *, #54, .T. ) ;
#121 = ORIENTED_EDGE ( 'NONE', *, *, #55, .T. ) ;
#122 = ORIENTED_EDGE ( 'NONE', *, *, #72, .F. ) ;
#123 = ORIENTED_EDGE ( 'NONE', *, *, #49, .T. ) ;
#124 = ORIENTED_EDGE ( 'NONE', *, *, #68, .F. ) ;
#125 = ORIENTED_EDGE ( 'NONE', *, *, #55, .F. ) ;
#126 = ORIENTED_EDGE ( 'NONE', *, *, #47, .F. ) ;
#127 = ORIENTED_EDGE ( 'NONE', *, *, #71, .T. ) ;
#128 = ORIENTED_EDGE ( 'NONE', *, *, #47, .T. ) ;
#129 = ORIENTED_EDGE ( 'NONE', *, *, #73, .T. ) ;
#130 = ORIENTED_EDGE ( 'NONE', *, *, #72, .T. ) ;
#131 = ORIENTED_EDGE ( 'NONE', *, *, #71, .F. ) ;
#132 = ORIENTED_EDGE ( 'NONE', *, *, #69, .F. ) ;
#133 = ORIENTED_EDGE ( 'NONE', *, *, #53, .F. ) ;
#134 = ORIENTED_EDGE ( 'NONE', *, *, #70, .T. ) ;
#135 = ORIENTED_EDGE ( 'NONE', *, *, #54, .F. ) ;
#136 = ORIENTED_EDGE ( 'NONE', *, *, #68, .T. ) ;
#137 = ORIENTED_EDGE ( 'NONE', *, *, #69, .T. ) ;
#138 = ORIENTED_EDGE ( 'NONE', *, *, #70, .F. ) ;
#139 = ORIENTED_EDGE ( 'NONE', *, *, #48, .T. ) ;
#140 = ORIENTED_EDGE ( 'NONE', *, *, #49, .F. ) ;
#141 = ORIENTED_EDGE ( 'NONE', *, *, #48, .F. ) ;
#142 = ORIENTED_EDGE ( 'NONE', *, *, #73, .F. ) ;
#143 = ORIENTED_EDGE ( 'NONE', *, *, #53, .T. ) ;
#144 = VERTEX_POINT ( 'NONE', #175 ) ;
#145 = VERTEX_POINT ( 'NONE', #191 ) ;
#146 = VERTEX_POINT ( 'NONE', #192 ) ;
#147 = VERTEX_POINT ( 'NONE', #193 ) ;
#148 = VERTEX_POINT ( 'NONE', #194 ) ;
#149 = VERTEX_POINT ( 'NONE', #195 ) ;
#150 = VERTEX_POINT ( 'NONE', #196 ) ;
#151 = VERTEX_POINT ( 'NONE', #197 ) ;
#152 = CARTESIAN_POINT ( 'NONE',  ( 0.0000000000000000000, 0.0000000000000000000, 1000.000000000000000 ) ) ;
#153 = DIRECTION ( 'NONE',  ( 1.000000000000000000, 1.734723475976806800E-016, 0.0000000000000000000 ) ) ;
#154 = DIRECTION ( 'NONE',  ( -0.0000000000000000000, 0.0000000000000000000, 1.000000000000000000 ) ) ;
#155 = DIRECTION ( 'NONE',  ( 1.000000000000000000, 0.0000000000000000000, 0.0000000000000000000 ) ) ;
#156 = PLANE ( 'NONE',  #29 ) ;
#157 = CARTESIAN_POINT ( 'NONE',  ( 5.000000000000000000, 5.000000000000000000, 1000.000000000000000 ) ) ;
#158 = DIRECTION ( 'NONE',  ( -1.000000000000000000, -8.673617379884036700E-017, 0.0000000000000000000 ) ) ;
#159 = DIRECTION ( 'NONE',  ( 8.673617379884036700E-017, -1.000000000000000000, 0.0000000000000000000 ) ) ;
#160 = PLANE ( 'NONE',  #39 ) ;
#161 = CARTESIAN_POINT ( 'NONE',  ( -5.000000000000000000, 5.000000000000000900, 1000.000000000000000 ) ) ;
#162 = DIRECTION ( 'NONE',  ( 1.000000000000000000, 0.0000000000000000000, -0.0000000000000000000 ) ) ;
#163 = DIRECTION ( 'NONE',  ( -0.0000000000000000000, 0.0000000000000000000, -1.000000000000000000 ) ) ;
#164 = PLANE ( 'NONE',  #42 ) ;
#165 = CARTESIAN_POINT ( 'NONE',  ( 0.0000000000000000000, 0.0000000000000000000, -1000.000000000000000 ) ) ;
#166 = DIRECTION ( 'NONE',  ( -0.0000000000000000000, 0.0000000000000000000, 1.000000000000000000 ) ) ;
#167 = DIRECTION ( 'NONE',  ( 1.000000000000000000, 0.0000000000000000000, 0.0000000000000000000 ) ) ;
#168 = PLANE ( 'NONE',  #24 ) ;
#169 = CARTESIAN_POINT ( 'NONE',  ( -5.000000000000000000, 5.000000000000000900, 1000.000000000000000 ) ) ;
#170 = DIRECTION ( 'NONE',  ( -8.673617379884035500E-017, -1.000000000000000000, 0.0000000000000000000 ) ) ;
#171 = DIRECTION ( 'NONE',  ( 1.000000000000000000, -8.673617379884035500E-017, 0.0000000000000000000 ) ) ;
#172 = LINE ( 'NONE', #173, #22 ) ;
#173 = CARTESIAN_POINT ( 'NONE',  ( 5.000000000000000900, -4.999999999999999100, 1000.000000000000000 ) ) ;
#174 = DIRECTION ( 'NONE',  ( -0.0000000000000000000, -0.0000000000000000000, -1.000000000000000000 ) ) ;
#175 = CARTESIAN_POINT ( 'NONE',  ( -5.000000000000000000, 5.000000000000000900, 1000.000000000000000 ) ) ;
#176 = LINE ( 'NONE', #177, #45 ) ;
#177 = CARTESIAN_POINT ( 'NONE',  ( 5.000000000000000000, 5.000000000000000000, 1000.000000000000000 ) ) ;
#178 = DIRECTION ( 'NONE',  ( -0.0000000000000000000, -0.0000000000000000000, -1.000000000000000000 ) ) ;
#179 = LINE ( 'NONE', #180, #15 ) ;
#180 = CARTESIAN_POINT ( 'NONE',  ( -5.000000000000000000, 5.000000000000000900, 1000.000000000000000 ) ) ;
#181 = DIRECTION ( 'NONE',  ( -1.000000000000000000, 8.673617379884035500E-017, -0.0000000000000000000 ) ) ;
#182 = LINE ( 'NONE', #183, #12 ) ;
#183 = CARTESIAN_POINT ( 'NONE',  ( 5.000000000000000000, 5.000000000000000000, 1000.000000000000000 ) ) ;
#184 = DIRECTION ( 'NONE',  ( -8.673617379884036700E-017, 1.000000000000000000, -0.0000000000000000000 ) ) ;
#185 = LINE ( 'NONE', #186, #44 ) ;
#186 = CARTESIAN_POINT ( 'NONE',  ( -5.000000000000000000, -5.000000000000000900, 1000.000000000000000 ) ) ;
#187 = DIRECTION ( 'NONE',  ( -0.0000000000000000000, -0.0000000000000000000, -1.000000000000000000 ) ) ;
#188 = LINE ( 'NONE', #189, #26 ) ;
#189 = CARTESIAN_POINT ( 'NONE',  ( 5.000000000000000000, 5.000000000000000000, -1000.000000000000000 ) ) ;
#190 = DIRECTION ( 'NONE',  ( -8.673617379884036700E-017, 1.000000000000000000, -0.0000000000000000000 ) ) ;
#191 = CARTESIAN_POINT ( 'NONE',  ( 5.000000000000000900, -4.999999999999999100, 1000.000000000000000 ) ) ;
#192 = CARTESIAN_POINT ( 'NONE',  ( 5.000000000000000000, 5.000000000000000000, -1000.000000000000000 ) ) ;
#193 = CARTESIAN_POINT ( 'NONE',  ( -5.000000000000000000, 5.000000000000000900, -1000.000000000000000 ) ) ;
#194 = CARTESIAN_POINT ( 'NONE',  ( 5.000000000000000000, 5.000000000000000000, 1000.000000000000000 ) ) ;
#195 = CARTESIAN_POINT ( 'NONE',  ( -5.000000000000000000, -5.000000000000000900, -1000.000000000000000 ) ) ;
#196 = CARTESIAN_POINT ( 'NONE',  ( -5.000000000000000000, -5.000000000000000900, 1000.000000000000000 ) ) ;
#197 = CARTESIAN_POINT ( 'NONE',  ( 5.000000000000000900, -4.999999999999999100, -1000.000000000000000 ) ) ;
#198 =( LENGTH_UNIT ( ) NAMED_UNIT ( * ) SI_UNIT ( .MILLI., .METRE. ) );
#199 =( NAMED_UNIT ( * ) PLANE_ANGLE_UNIT ( ) SI_UNIT ( $, .RADIAN. ) );
#200 =( NAMED_UNIT ( * ) SI_UNIT ( $, .STERADIAN. ) SOLID_ANGLE_UNIT ( ) );
#201 = SHAPE_DEFINITION_REPRESENTATION ( #89, #83 ) ;
#202 = CARTESIAN_POINT ( 'NONE',  ( 0.0000000000000000000, 0.0000000000000000000, 0.0000000000000000000 ) ) ;
#203 = DIRECTION ( 'NONE',  ( 0.0000000000000000000, 0.0000000000000000000, 1.000000000000000000 ) ) ;
#204 = DIRECTION ( 'NONE',  ( 1.000000000000000000, 0.0000000000000000000, 0.0000000000000000000 ) ) ;
#205 = APPLICATION_PROTOCOL_DEFINITION ( 'international standard', 'config_control_design', 1994, #86 ) ;
#206 = MECHANICAL_CONTEXT ( 'NONE', #86, 'mechanical' ) ;
#207 = PERSON_AND_ORGANIZATION ( #84, #20 ) ;
#208 = PERSON_AND_ORGANIZATION_ROLE ( 'design_owner' ) ;
#209 = APPLICATION_PROTOCOL_DEFINITION ( 'international standard', 'config_control_design', 1994, #85 ) ;
#210 = PERSON_AND_ORGANIZATION ( #84, #20 ) ;
#211 = APPROVAL_STATUS ( 'not_yet_approved' ) ;
#212 = APPROVAL_ROLE ( '' ) ;
#213 = DATE_AND_TIME ( #9, #76 ) ;
#214 = APPROVAL_DATE_TIME ( #213, #81 ) ;
#215 = PERSON_AND_ORGANIZATION ( #84, #20 ) ;
#216 = PERSON_AND_ORGANIZATION_ROLE ( 'creator' ) ;
#217 = DATE_AND_TIME ( #6, #80 ) ;
#218 = DATE_TIME_ROLE ( 'creation_date' ) ;
#219 = PERSON_AND_ORGANIZATION ( #84, #20 ) ;
#220 = APPROVAL_STATUS ( 'not_yet_approved' ) ;
#221 = APPROVAL_ROLE ( '' ) ;
#222 = DATE_AND_TIME ( #8, #74 ) ;
#223 = APPROVAL_DATE_TIME ( #222, #78 ) ;
#224 = PERSON_AND_ORGANIZATION ( #84, #20 ) ;
#225 = PERSON_AND_ORGANIZATION_ROLE ( 'creator' ) ;
#226 = PERSON_AND_ORGANIZATION ( #84, #20 ) ;
#227 = PERSON_AND_ORGANIZATION_ROLE ( 'design_supplier' ) ;
#228 = SECURITY_CLASSIFICATION_LEVEL ( 'unclassified' ) ;
#229 = PERSON_AND_ORGANIZATION ( #84, #20 ) ;
#230 = PERSON_AND_ORGANIZATION_ROLE ( 'classification_officer' ) ;
#231 = DATE_AND_TIME ( #32, #51 ) ;
#232 = DATE_TIME_ROLE ( 'classification_date' ) ;
#233 = PERSON_AND_ORGANIZATION ( #84, #20 ) ;
#234 = APPROVAL_STATUS ( 'not_yet_approved' ) ;
#235 = APPROVAL_ROLE ( '' ) ;
#236 = DATE_AND_TIME ( #36, #50 ) ;
#237 = APPROVAL_DATE_TIME ( #236, #66 ) ;
ENDSEC;
END-ISO-10303-21;
