ISO-10303-21;
HEADER;
FILE_DESCRIPTION (( 'STEP AP203' ),
    '1' );
FILE_NAME ('sone3D.STEP',
    '2013-08-09T06:38:24',
    ( '' ),
    ( '' ),
    'SwSTEP 2.0',
    'SolidWorks 2012',
    '' );
FILE_SCHEMA (( 'CONFIG_CONTROL_DESIGN' ));
ENDSEC;

DATA;
#1 = LOCAL_TIME ( 15, 38, 24.00000000000000000, #28 ) ;
#2 = APPROVAL ( #234, 'UNSPECIFIED' ) ;
#3 = LOCAL_TIME ( 15, 38, 24.00000000000000000, #53 ) ;
#4 = PRODUCT_RELATED_PRODUCT_CATEGORY ( 'detail', '', ( #139 ) ) ;
#5 = CC_DESIGN_DATE_AND_TIME_ASSIGNMENT ( #231, #232, ( #25 ) ) ;
#6 = PERSON ( 'UNSPECIFIED', 'UNSPECIFIED', 'UNSPECIFIED', ('UNSPECIFIED'), ('UNSPECIFIED'), ('UNSPECIFIED') ) ;
#7 = UNCERTAINTY_MEASURE_WITH_UNIT (LENGTH_MEASURE( 1.000000000000000100E-005 ), #198, 'distance_accuracy_value', 'NONE');
#8 = ADVANCED_BREP_SHAPE_REPRESENTATION ( 'sone3D', ( #10, #56 ), #58 ) ;
#9 = DESIGN_CONTEXT ( 'detailed design', #140, 'design' ) ;
#10 = MANIFOLD_SOLID_BREP ( 'ÎÞ½ - µoµ1', #55 ) ;
#11 = PRODUCT_DEFINITION_SHAPE ( 'NONE', 'NONE',  #116 ) ;
#12 = CC_DESIGN_SECURITY_CLASSIFICATION ( #25, ( #18 ) ) ;
#13 = VECTOR ( 'NONE', #170, 1000.000000000000000 ) ;
#14 = VECTOR ( 'NONE', #154, 1000.000000000000000 ) ;
#15 = AXIS2_PLACEMENT_3D ( 'NONE', #171, #160, #172 ) ;
#16 = FACE_OUTER_BOUND ( 'NONE', #64, .T. ) ;
#17 = VECTOR ( 'NONE', #189, 1000.000000000000000 ) ;
#18 = PRODUCT_DEFINITION_FORMATION_WITH_SPECIFIED_SOURCE ( 'ANY', '', #139, .NOT_KNOWN. ) ;
#19 = APPROVAL_PERSON_ORGANIZATION ( #210, #124, #212 ) ;
#20 = APPROVAL_PERSON_ORGANIZATION ( #219, #118, #221 ) ;
#21 = CC_DESIGN_APPROVAL ( #124, ( #116 ) ) ;
#22 = AXIS2_PLACEMENT_3D ( 'NONE', #174, #175, #176 ) ;
#23 = FACE_OUTER_BOUND ( 'NONE', #66, .T. ) ;
#24 = CALENDAR_DATE ( 2013, 9, 8 ) ;
#25 = SECURITY_CLASSIFICATION ( '', '', #228 ) ;
#26 = COORDINATED_UNIVERSAL_TIME_OFFSET ( 9, 0, .AHEAD. ) ;
#27 = CALENDAR_DATE ( 2013, 9, 8 ) ;
#28 = COORDINATED_UNIVERSAL_TIME_OFFSET ( 9, 0, .AHEAD. ) ;
#29 = VECTOR ( 'NONE', #148, 1000.000000000000000 ) ;
#30 = VECTOR ( 'NONE', #142, 1000.000000000000000 ) ;
#31 = ORGANIZATION ( 'UNSPECIFIED', 'UNSPECIFIED', '' ) ;
#32 = FACE_OUTER_BOUND ( 'NONE', #68, .T. ) ;
#33 = AXIS2_PLACEMENT_3D ( 'NONE', #178, #179, #180 ) ;
#34 = AXIS2_PLACEMENT_3D ( 'NONE', #181, #158, #182 ) ;
#35 = VECTOR ( 'NONE', #161, 1000.000000000000000 ) ;
#36 = CALENDAR_DATE ( 2013, 9, 8 ) ;
#37 = AXIS2_PLACEMENT_3D ( 'NONE', #147, #146, #145 ) ;
#38 = COORDINATED_UNIVERSAL_TIME_OFFSET ( 9, 0, .AHEAD. ) ;
#39 = CC_DESIGN_APPROVAL ( #2, ( #25 ) ) ;
#40 = FACE_OUTER_BOUND ( 'NONE', #67, .T. ) ;
#41 = CALENDAR_DATE ( 2013, 9, 8 ) ;
#42 = VECTOR ( 'NONE', #197, 1000.000000000000000 ) ;
#43 = CALENDAR_DATE ( 2013, 9, 8 ) ;
#44 = VECTOR ( 'NONE', #151, 1000.000000000000000 ) ;
#45 = FACE_OUTER_BOUND ( 'NONE', #69, .T. ) ;
#46 = VECTOR ( 'NONE', #185, 1000.000000000000000 ) ;
#47 = COORDINATED_UNIVERSAL_TIME_OFFSET ( 9, 0, .AHEAD. ) ;
#48 = VECTOR ( 'NONE', #166, 1000.000000000000000 ) ;
#49 = AXIS2_PLACEMENT_3D ( 'NONE', #159, #162, #163 ) ;
#50 = CC_DESIGN_APPROVAL ( #118, ( #18 ) ) ;
#51 = VECTOR ( 'NONE', #194, 1000.000000000000000 ) ;
#52 = VECTOR ( 'NONE', #104, 1000.000000000000000 ) ;
#53 = COORDINATED_UNIVERSAL_TIME_OFFSET ( 9, 0, .AHEAD. ) ;
#54 = APPROVAL_PERSON_ORGANIZATION ( #233, #2, #235 ) ;
#55 = CLOSED_SHELL ( 'NONE', ( #127, #113, #126, #125, #134, #128 ) ) ;
#56 = AXIS2_PLACEMENT_3D ( 'NONE', #202, #203, #204 ) ;
#57 = FACE_OUTER_BOUND ( 'NONE', #70, .T. ) ;
#58 =( GEOMETRIC_REPRESENTATION_CONTEXT ( 3 ) GLOBAL_UNCERTAINTY_ASSIGNED_CONTEXT ( ( #7 ) ) GLOBAL_UNIT_ASSIGNED_CONTEXT ( ( #198, #199, #200 ) ) REPRESENTATION_CONTEXT ( 'NONE', 'WORKASPACE' ) );
#59 = CARTESIAN_POINT ( 'NONE',  ( 25.00000000000000000, 2.500000000000000000, -500.0000000000000000 ) ) ;
#60 = CARTESIAN_POINT ( 'NONE',  ( -25.00000000000000000, -2.500000000000003100, -500.0000000000000000 ) ) ;
#61 = CARTESIAN_POINT ( 'NONE',  ( 25.00000000000000000, 2.500000000000000000, 500.0000000000000000 ) ) ;
#62 = VERTEX_POINT ( 'NONE', #78 ) ;
#63 = VERTEX_POINT ( 'NONE', #96 ) ;
#64 = EDGE_LOOP ( 'NONE', ( #81, #101, #74, #100 ) ) ;
#65 = VERTEX_POINT ( 'NONE', #75 ) ;
#66 = EDGE_LOOP ( 'NONE', ( #91, #92, #93, #95 ) ) ;
#67 = EDGE_LOOP ( 'NONE', ( #97, #87, #84, #83 ) ) ;
#68 = EDGE_LOOP ( 'NONE', ( #86, #98, #88, #89 ) ) ;
#69 = EDGE_LOOP ( 'NONE', ( #99, #108, #90, #106 ) ) ;
#70 = EDGE_LOOP ( 'NONE', ( #103, #102, #72, #107 ) ) ;
#71 = CARTESIAN_POINT ( 'NONE',  ( 25.00000000000000000, -2.500000000000000000, 500.0000000000000000 ) ) ;
#72 = ORIENTED_EDGE ( 'NONE', *, *, #131, .T. ) ;
#73 = LINE ( 'NONE', #79, #52 ) ;
#74 = ORIENTED_EDGE ( 'NONE', *, *, #122, .F. ) ;
#75 = CARTESIAN_POINT ( 'NONE',  ( 25.00000000000000000, -2.500000000000000000, -500.0000000000000000 ) ) ;
#76 = VERTEX_POINT ( 'NONE', #71 ) ;
#77 = VERTEX_POINT ( 'NONE', #60 ) ;
#78 = CARTESIAN_POINT ( 'NONE',  ( -25.00000000000000000, 2.500000000000003100, -500.0000000000000000 ) ) ;
#79 = CARTESIAN_POINT ( 'NONE',  ( -25.00000000000000000, -2.500000000000003100, 500.0000000000000000 ) ) ;
#80 = VERTEX_POINT ( 'NONE', #105 ) ;
#81 = ORIENTED_EDGE ( 'NONE', *, *, #120, .F. ) ;
#82 = VERTEX_POINT ( 'NONE', #59 ) ;
#83 = ORIENTED_EDGE ( 'NONE', *, *, #112, .T. ) ;
#84 = ORIENTED_EDGE ( 'NONE', *, *, #135, .F. ) ;
#85 = PLANE ( 'NONE',  #49 ) ;
#86 = ORIENTED_EDGE ( 'NONE', *, *, #120, .T. ) ;
#87 = ORIENTED_EDGE ( 'NONE', *, *, #138, .F. ) ;
#88 = ORIENTED_EDGE ( 'NONE', *, *, #137, .F. ) ;
#89 = ORIENTED_EDGE ( 'NONE', *, *, #132, .T. ) ;
#90 = ORIENTED_EDGE ( 'NONE', *, *, #129, .F. ) ;
#91 = ORIENTED_EDGE ( 'NONE', *, *, #122, .T. ) ;
#92 = ORIENTED_EDGE ( 'NONE', *, *, #136, .F. ) ;
#93 = ORIENTED_EDGE ( 'NONE', *, *, #131, .F. ) ;
#94 = VERTEX_POINT ( 'NONE', #61 ) ;
#95 = ORIENTED_EDGE ( 'NONE', *, *, #138, .T. ) ;
#96 = CARTESIAN_POINT ( 'NONE',  ( -25.00000000000000000, -2.500000000000003100, 500.0000000000000000 ) ) ;
#97 = ORIENTED_EDGE ( 'NONE', *, *, #133, .T. ) ;
#98 = ORIENTED_EDGE ( 'NONE', *, *, #112, .F. ) ;
#99 = ORIENTED_EDGE ( 'NONE', *, *, #130, .T. ) ;
#100 = ORIENTED_EDGE ( 'NONE', *, *, #133, .F. ) ;
#101 = ORIENTED_EDGE ( 'NONE', *, *, #130, .F. ) ;
#102 = ORIENTED_EDGE ( 'NONE', *, *, #135, .T. ) ;
#103 = ORIENTED_EDGE ( 'NONE', *, *, #137, .T. ) ;
#104 = DIRECTION ( 'NONE',  ( -0.0000000000000000000, -0.0000000000000000000, -1.000000000000000000 ) ) ;
#105 = CARTESIAN_POINT ( 'NONE',  ( -25.00000000000000000, 2.500000000000003100, 500.0000000000000000 ) ) ;
#106 = ORIENTED_EDGE ( 'NONE', *, *, #136, .T. ) ;
#107 = ORIENTED_EDGE ( 'NONE', *, *, #129, .T. ) ;
#108 = ORIENTED_EDGE ( 'NONE', *, *, #132, .F. ) ;
#109 = CC_DESIGN_PERSON_AND_ORGANIZATION_ASSIGNMENT ( #229, #230, ( #25 ) ) ;
#110 = CC_DESIGN_PERSON_AND_ORGANIZATION_ASSIGNMENT ( #226, #227, ( #18 ) ) ;
#111 = CC_DESIGN_PERSON_AND_ORGANIZATION_ASSIGNMENT ( #224, #225, ( #18 ) ) ;
#112 = EDGE_CURVE ( 'NONE', #63, #77, #73, .T. ) ;
#113 = ADVANCED_FACE ( 'NONE', ( #40 ), #85, .F. ) ;
#114 = CC_DESIGN_PERSON_AND_ORGANIZATION_ASSIGNMENT ( #215, #216, ( #116 ) ) ;
#115 = LOCAL_TIME ( 15, 38, 24.00000000000000000, #47 ) ;
#116 = PRODUCT_DEFINITION ( 'UNKNOWN', '', #18, #9 ) ;
#117 = CC_DESIGN_DATE_AND_TIME_ASSIGNMENT ( #217, #218, ( #116 ) ) ;
#118 = APPROVAL ( #220, 'UNSPECIFIED' ) ;
#119 = LOCAL_TIME ( 15, 38, 24.00000000000000000, #26 ) ;
#120 = EDGE_CURVE ( 'NONE', #62, #77, #164, .T. ) ;
#121 = CC_DESIGN_PERSON_AND_ORGANIZATION_ASSIGNMENT ( #207, #208, ( #139 ) ) ;
#122 = EDGE_CURVE ( 'NONE', #65, #82, #168, .T. ) ;
#123 = LOCAL_TIME ( 15, 38, 24.00000000000000000, #38 ) ;
#124 = APPROVAL ( #211, 'UNSPECIFIED' ) ;
#125 = ADVANCED_FACE ( 'NONE', ( #45 ), #167, .F. ) ;
#126 = ADVANCED_FACE ( 'NONE', ( #23 ), #173, .F. ) ;
#127 = ADVANCED_FACE ( 'NONE', ( #32 ), #177, .F. ) ;
#128 = ADVANCED_FACE ( 'NONE', ( #16 ), #157, .F. ) ;
#129 = EDGE_CURVE ( 'NONE', #94, #80, #183, .T. ) ;
#130 = EDGE_CURVE ( 'NONE', #82, #62, #187, .T. ) ;
#131 = EDGE_CURVE ( 'NONE', #76, #94, #190, .T. ) ;
#132 = EDGE_CURVE ( 'NONE', #80, #62, #152, .T. ) ;
#133 = EDGE_CURVE ( 'NONE', #77, #65, #150, .T. ) ;
#134 = ADVANCED_FACE ( 'NONE', ( #57 ), #186, .T. ) ;
#135 = EDGE_CURVE ( 'NONE', #63, #76, #144, .T. ) ;
#136 = EDGE_CURVE ( 'NONE', #94, #82, #155, .T. ) ;
#137 = EDGE_CURVE ( 'NONE', #80, #63, #192, .T. ) ;
#138 = EDGE_CURVE ( 'NONE', #76, #65, #195, .T. ) ;
#139 = PRODUCT ( 'sone3D', 'sone3D', '', ( #206 ) ) ;
#140 = APPLICATION_CONTEXT ( 'configuration controlled 3d designs of mechanical parts and assemblies' ) ;
#141 = APPLICATION_CONTEXT ( 'configuration controlled 3d designs of mechanical parts and assemblies' ) ;
#142 = DIRECTION ( 'NONE',  ( 1.000000000000000000, 6.071532165918824800E-017, 0.0000000000000000000 ) ) ;
#143 = CARTESIAN_POINT ( 'NONE',  ( -25.00000000000000000, -2.500000000000003100, 500.0000000000000000 ) ) ;
#144 = LINE ( 'NONE', #143, #30 ) ;
#145 = DIRECTION ( 'NONE',  ( 1.000000000000000000, 0.0000000000000000000, 0.0000000000000000000 ) ) ;
#146 = DIRECTION ( 'NONE',  ( -0.0000000000000000000, 0.0000000000000000000, 1.000000000000000000 ) ) ;
#147 = CARTESIAN_POINT ( 'NONE',  ( 0.0000000000000000000, 0.0000000000000000000, 500.0000000000000000 ) ) ;
#148 = DIRECTION ( 'NONE',  ( 1.000000000000000000, 6.071532165918824800E-017, 0.0000000000000000000 ) ) ;
#149 = CARTESIAN_POINT ( 'NONE',  ( -25.00000000000000000, -2.500000000000003100, -500.0000000000000000 ) ) ;
#150 = LINE ( 'NONE', #149, #29 ) ;
#151 = DIRECTION ( 'NONE',  ( -0.0000000000000000000, -0.0000000000000000000, -1.000000000000000000 ) ) ;
#152 = LINE ( 'NONE', #153, #44 ) ;
#153 = CARTESIAN_POINT ( 'NONE',  ( -25.00000000000000000, 2.500000000000003100, 500.0000000000000000 ) ) ;
#154 = DIRECTION ( 'NONE',  ( -0.0000000000000000000, 1.000000000000000000, -0.0000000000000000000 ) ) ;
#155 = LINE ( 'NONE', #156, #35 ) ;
#156 = CARTESIAN_POINT ( 'NONE',  ( 25.00000000000000000, 2.500000000000000000, 500.0000000000000000 ) ) ;
#157 = PLANE ( 'NONE',  #34 ) ;
#158 = DIRECTION ( 'NONE',  ( -0.0000000000000000000, 0.0000000000000000000, 1.000000000000000000 ) ) ;
#159 = CARTESIAN_POINT ( 'NONE',  ( -25.00000000000000000, -2.500000000000003100, 500.0000000000000000 ) ) ;
#160 = DIRECTION ( 'NONE',  ( -6.071532165918824800E-017, -1.000000000000000000, 0.0000000000000000000 ) ) ;
#161 = DIRECTION ( 'NONE',  ( -0.0000000000000000000, -0.0000000000000000000, -1.000000000000000000 ) ) ;
#162 = DIRECTION ( 'NONE',  ( -6.071532165918824800E-017, 1.000000000000000000, 0.0000000000000000000 ) ) ;
#163 = DIRECTION ( 'NONE',  ( -1.000000000000000000, -6.071532165918824800E-017, 0.0000000000000000000 ) ) ;
#164 = LINE ( 'NONE', #165, #48 ) ;
#165 = CARTESIAN_POINT ( 'NONE',  ( -25.00000000000000000, 2.500000000000003100, -500.0000000000000000 ) ) ;
#166 = DIRECTION ( 'NONE',  ( 0.0000000000000000000, -1.000000000000000000, 0.0000000000000000000 ) ) ;
#167 = PLANE ( 'NONE',  #15 ) ;
#168 = LINE ( 'NONE', #169, #13 ) ;
#169 = CARTESIAN_POINT ( 'NONE',  ( 25.00000000000000000, 2.500000000000000000, -500.0000000000000000 ) ) ;
#170 = DIRECTION ( 'NONE',  ( -0.0000000000000000000, 1.000000000000000000, -0.0000000000000000000 ) ) ;
#171 = CARTESIAN_POINT ( 'NONE',  ( -25.00000000000000000, 2.500000000000003100, 500.0000000000000000 ) ) ;
#172 = DIRECTION ( 'NONE',  ( 1.000000000000000000, -6.071532165918824800E-017, 0.0000000000000000000 ) ) ;
#173 = PLANE ( 'NONE',  #22 ) ;
#174 = CARTESIAN_POINT ( 'NONE',  ( 25.00000000000000000, 2.500000000000000000, 500.0000000000000000 ) ) ;
#175 = DIRECTION ( 'NONE',  ( -1.000000000000000000, 0.0000000000000000000, 0.0000000000000000000 ) ) ;
#176 = DIRECTION ( 'NONE',  ( 0.0000000000000000000, 0.0000000000000000000, 1.000000000000000000 ) ) ;
#177 = PLANE ( 'NONE',  #33 ) ;
#178 = CARTESIAN_POINT ( 'NONE',  ( -25.00000000000000000, 2.500000000000003100, 500.0000000000000000 ) ) ;
#179 = DIRECTION ( 'NONE',  ( 1.000000000000000000, 0.0000000000000000000, -0.0000000000000000000 ) ) ;
#180 = DIRECTION ( 'NONE',  ( -0.0000000000000000000, 0.0000000000000000000, -1.000000000000000000 ) ) ;
#181 = CARTESIAN_POINT ( 'NONE',  ( 0.0000000000000000000, 0.0000000000000000000, -500.0000000000000000 ) ) ;
#182 = DIRECTION ( 'NONE',  ( 1.000000000000000000, 0.0000000000000000000, 0.0000000000000000000 ) ) ;
#183 = LINE ( 'NONE', #184, #46 ) ;
#184 = CARTESIAN_POINT ( 'NONE',  ( -25.00000000000000000, 2.500000000000003100, 500.0000000000000000 ) ) ;
#185 = DIRECTION ( 'NONE',  ( -1.000000000000000000, 6.071532165918824800E-017, -0.0000000000000000000 ) ) ;
#186 = PLANE ( 'NONE',  #37 ) ;
#187 = LINE ( 'NONE', #188, #17 ) ;
#188 = CARTESIAN_POINT ( 'NONE',  ( -25.00000000000000000, 2.500000000000003100, -500.0000000000000000 ) ) ;
#189 = DIRECTION ( 'NONE',  ( -1.000000000000000000, 6.071532165918824800E-017, -0.0000000000000000000 ) ) ;
#190 = LINE ( 'NONE', #191, #14 ) ;
#191 = CARTESIAN_POINT ( 'NONE',  ( 25.00000000000000000, 2.500000000000000000, 500.0000000000000000 ) ) ;
#192 = LINE ( 'NONE', #193, #51 ) ;
#193 = CARTESIAN_POINT ( 'NONE',  ( -25.00000000000000000, 2.500000000000003100, 500.0000000000000000 ) ) ;
#194 = DIRECTION ( 'NONE',  ( 0.0000000000000000000, -1.000000000000000000, 0.0000000000000000000 ) ) ;
#195 = LINE ( 'NONE', #196, #42 ) ;
#196 = CARTESIAN_POINT ( 'NONE',  ( 25.00000000000000000, -2.500000000000000000, 500.0000000000000000 ) ) ;
#197 = DIRECTION ( 'NONE',  ( -0.0000000000000000000, -0.0000000000000000000, -1.000000000000000000 ) ) ;
#198 =( LENGTH_UNIT ( ) NAMED_UNIT ( * ) SI_UNIT ( .MILLI., .METRE. ) );
#199 =( NAMED_UNIT ( * ) PLANE_ANGLE_UNIT ( ) SI_UNIT ( $, .RADIAN. ) );
#200 =( NAMED_UNIT ( * ) SI_UNIT ( $, .STERADIAN. ) SOLID_ANGLE_UNIT ( ) );
#201 = APPLICATION_PROTOCOL_DEFINITION ( 'international standard', 'config_control_design', 1994, #141 ) ;
#202 = CARTESIAN_POINT ( 'NONE',  ( 0.0000000000000000000, 0.0000000000000000000, 0.0000000000000000000 ) ) ;
#203 = DIRECTION ( 'NONE',  ( 0.0000000000000000000, 0.0000000000000000000, 1.000000000000000000 ) ) ;
#204 = DIRECTION ( 'NONE',  ( 1.000000000000000000, 0.0000000000000000000, 0.0000000000000000000 ) ) ;
#205 = SHAPE_DEFINITION_REPRESENTATION ( #11, #8 ) ;
#206 = MECHANICAL_CONTEXT ( 'NONE', #141, 'mechanical' ) ;
#207 = PERSON_AND_ORGANIZATION ( #6, #31 ) ;
#208 = PERSON_AND_ORGANIZATION_ROLE ( 'design_owner' ) ;
#209 = APPLICATION_PROTOCOL_DEFINITION ( 'international standard', 'config_control_design', 1994, #140 ) ;
#210 = PERSON_AND_ORGANIZATION ( #6, #31 ) ;
#211 = APPROVAL_STATUS ( 'not_yet_approved' ) ;
#212 = APPROVAL_ROLE ( '' ) ;
#213 = DATE_AND_TIME ( #27, #123 ) ;
#214 = APPROVAL_DATE_TIME ( #213, #124 ) ;
#215 = PERSON_AND_ORGANIZATION ( #6, #31 ) ;
#216 = PERSON_AND_ORGANIZATION_ROLE ( 'creator' ) ;
#217 = DATE_AND_TIME ( #36, #115 ) ;
#218 = DATE_TIME_ROLE ( 'creation_date' ) ;
#219 = PERSON_AND_ORGANIZATION ( #6, #31 ) ;
#220 = APPROVAL_STATUS ( 'not_yet_approved' ) ;
#221 = APPROVAL_ROLE ( '' ) ;
#222 = DATE_AND_TIME ( #43, #119 ) ;
#223 = APPROVAL_DATE_TIME ( #222, #118 ) ;
#224 = PERSON_AND_ORGANIZATION ( #6, #31 ) ;
#225 = PERSON_AND_ORGANIZATION_ROLE ( 'creator' ) ;
#226 = PERSON_AND_ORGANIZATION ( #6, #31 ) ;
#227 = PERSON_AND_ORGANIZATION_ROLE ( 'design_supplier' ) ;
#228 = SECURITY_CLASSIFICATION_LEVEL ( 'unclassified' ) ;
#229 = PERSON_AND_ORGANIZATION ( #6, #31 ) ;
#230 = PERSON_AND_ORGANIZATION_ROLE ( 'classification_officer' ) ;
#231 = DATE_AND_TIME ( #24, #3 ) ;
#232 = DATE_TIME_ROLE ( 'classification_date' ) ;
#233 = PERSON_AND_ORGANIZATION ( #6, #31 ) ;
#234 = APPROVAL_STATUS ( 'not_yet_approved' ) ;
#235 = APPROVAL_ROLE ( '' ) ;
#236 = DATE_AND_TIME ( #41, #1 ) ;
#237 = APPROVAL_DATE_TIME ( #236, #2 ) ;
ENDSEC;
END-ISO-10303-21;
