ISO-10303-21;
HEADER;
FILE_DESCRIPTION (( 'STEP AP203' ),
    '1' );
FILE_NAME ('sone3D.STEP',
    '2013-08-09T06:37:58',
    ( '' ),
    ( '' ),
    'SwSTEP 2.0',
    'SolidWorks 2012',
    '' );
FILE_SCHEMA (( 'CONFIG_CONTROL_DESIGN' ));
ENDSEC;

DATA;
#1 = LOCAL_TIME ( 15, 37, 58.00000000000000000, #42 ) ;
#2 = APPROVAL ( #234, 'UNSPECIFIED' ) ;
#3 = PRODUCT_RELATED_PRODUCT_CATEGORY ( 'detail', '', ( #141 ) ) ;
#4 = ADVANCED_BREP_SHAPE_REPRESENTATION ( 'sone3D', ( #8, #26 ), #56 ) ;
#5 = UNCERTAINTY_MEASURE_WITH_UNIT (LENGTH_MEASURE( 1.000000000000000100E-005 ), #198, 'distance_accuracy_value', 'NONE');
#6 = PERSON ( 'UNSPECIFIED', 'UNSPECIFIED', 'UNSPECIFIED', ('UNSPECIFIED'), ('UNSPECIFIED'), ('UNSPECIFIED') ) ;
#7 = DESIGN_CONTEXT ( 'detailed design', #107, 'design' ) ;
#8 = MANIFOLD_SOLID_BREP ( 'ÎÞ½ - µoµ1', #54 ) ;
#9 = PRODUCT_DEFINITION_SHAPE ( 'NONE', 'NONE',  #132 ) ;
#10 = AXIS2_PLACEMENT_3D ( 'NONE', #166, #144, #167 ) ;
#11 = VECTOR ( 'NONE', #184, 1000.000000000000000 ) ;
#12 = APPROVAL_PERSON_ORGANIZATION ( #233, #2, #235 ) ;
#13 = CALENDAR_DATE ( 2013, 9, 8 ) ;
#14 = AXIS2_PLACEMENT_3D ( 'NONE', #185, #186, #187 ) ;
#15 = CC_DESIGN_SECURITY_CLASSIFICATION ( #22, ( #19 ) ) ;
#16 = CALENDAR_DATE ( 2013, 9, 8 ) ;
#17 = VECTOR ( 'NONE', #159, 1000.000000000000000 ) ;
#18 = FACE_OUTER_BOUND ( 'NONE', #68, .T. ) ;
#19 = PRODUCT_DEFINITION_FORMATION_WITH_SPECIFIED_SOURCE ( 'ANY', '', #141, .NOT_KNOWN. ) ;
#20 = CALENDAR_DATE ( 2013, 9, 8 ) ;
#21 = APPROVAL_PERSON_ORGANIZATION ( #210, #118, #212 ) ;
#22 = SECURITY_CLASSIFICATION ( '', '', #228 ) ;
#23 = AXIS2_PLACEMENT_3D ( 'NONE', #189, #190, #191 ) ;
#24 = FACE_OUTER_BOUND ( 'NONE', #64, .T. ) ;
#25 = AXIS2_PLACEMENT_3D ( 'NONE', #163, #164, #165 ) ;
#26 = AXIS2_PLACEMENT_3D ( 'NONE', #202, #203, #204 ) ;
#27 = CALENDAR_DATE ( 2013, 9, 8 ) ;
#28 = FACE_OUTER_BOUND ( 'NONE', #101, .T. ) ;
#29 = APPROVAL_PERSON_ORGANIZATION ( #219, #134, #221 ) ;
#30 = AXIS2_PLACEMENT_3D ( 'NONE', #169, #170, #171 ) ;
#31 = COORDINATED_UNIVERSAL_TIME_OFFSET ( 9, 0, .AHEAD. ) ;
#32 = VECTOR ( 'NONE', #194, 1000.000000000000000 ) ;
#33 = ORGANIZATION ( 'UNSPECIFIED', 'UNSPECIFIED', '' ) ;
#34 = VECTOR ( 'NONE', #154, 1000.000000000000000 ) ;
#35 = VECTOR ( 'NONE', #151, 1000.000000000000000 ) ;
#36 = FACE_OUTER_BOUND ( 'NONE', #59, .T. ) ;
#37 = VECTOR ( 'NONE', #178, 1000.000000000000000 ) ;
#38 = VECTOR ( 'NONE', #162, 1000.000000000000000 ) ;
#39 = CALENDAR_DATE ( 2013, 9, 8 ) ;
#40 = VECTOR ( 'NONE', #148, 1000.000000000000000 ) ;
#41 = COORDINATED_UNIVERSAL_TIME_OFFSET ( 9, 0, .AHEAD. ) ;
#42 = COORDINATED_UNIVERSAL_TIME_OFFSET ( 9, 0, .AHEAD. ) ;
#43 = FACE_OUTER_BOUND ( 'NONE', #102, .T. ) ;
#44 = COORDINATED_UNIVERSAL_TIME_OFFSET ( 9, 0, .AHEAD. ) ;
#45 = CC_DESIGN_APPROVAL ( #134, ( #19 ) ) ;
#46 = CC_DESIGN_APPROVAL ( #118, ( #132 ) ) ;
#47 = VECTOR ( 'NONE', #100, 1000.000000000000000 ) ;
#48 = CC_DESIGN_APPROVAL ( #2, ( #22 ) ) ;
#49 = FACE_OUTER_BOUND ( 'NONE', #66, .T. ) ;
#50 = VECTOR ( 'NONE', #197, 1000.000000000000000 ) ;
#51 = AXIS2_PLACEMENT_3D ( 'NONE', #173, #174, #175 ) ;
#52 = VECTOR ( 'NONE', #146, 1000.000000000000000 ) ;
#53 = COORDINATED_UNIVERSAL_TIME_OFFSET ( 9, 0, .AHEAD. ) ;
#54 = CLOSED_SHELL ( 'NONE', ( #119, #116, #124, #120, #117, #127 ) ) ;
#55 = VECTOR ( 'NONE', #181, 1000.000000000000000 ) ;
#56 =( GEOMETRIC_REPRESENTATION_CONTEXT ( 3 ) GLOBAL_UNCERTAINTY_ASSIGNED_CONTEXT ( ( #5 ) ) GLOBAL_UNIT_ASSIGNED_CONTEXT ( ( #198, #199, #200 ) ) REPRESENTATION_CONTEXT ( 'NONE', 'WORKASPACE' ) );
#57 = VERTEX_POINT ( 'NONE', #67 ) ;
#58 = CARTESIAN_POINT ( 'NONE',  ( -20.00000000000000000, -2.500000000000002200, 500.0000000000000000 ) ) ;
#59 = EDGE_LOOP ( 'NONE', ( #92, #88, #87, #89 ) ) ;
#60 = CARTESIAN_POINT ( 'NONE',  ( -20.00000000000000000, 2.500000000000002200, -500.0000000000000000 ) ) ;
#61 = VERTEX_POINT ( 'NONE', #69 ) ;
#62 = ORIENTED_EDGE ( 'NONE', *, *, #114, .F. ) ;
#63 = ORIENTED_EDGE ( 'NONE', *, *, #113, .T. ) ;
#64 = EDGE_LOOP ( 'NONE', ( #86, #84, #85, #82 ) ) ;
#65 = PLANE ( 'NONE',  #25 ) ;
#66 = EDGE_LOOP ( 'NONE', ( #73, #91, #62, #63 ) ) ;
#67 = CARTESIAN_POINT ( 'NONE',  ( 20.00000000000000000, -2.500000000000000000, 500.0000000000000000 ) ) ;
#68 = EDGE_LOOP ( 'NONE', ( #90, #72, #76, #93 ) ) ;
#69 = CARTESIAN_POINT ( 'NONE',  ( -20.00000000000000000, 2.500000000000002200, 500.0000000000000000 ) ) ;
#70 = VERTEX_POINT ( 'NONE', #95 ) ;
#71 = VERTEX_POINT ( 'NONE', #60 ) ;
#72 = ORIENTED_EDGE ( 'NONE', *, *, #115, .F. ) ;
#73 = ORIENTED_EDGE ( 'NONE', *, *, #121, .T. ) ;
#74 = ORIENTED_EDGE ( 'NONE', *, *, #112, .F. ) ;
#75 = ORIENTED_EDGE ( 'NONE', *, *, #110, .F. ) ;
#76 = ORIENTED_EDGE ( 'NONE', *, *, #123, .F. ) ;
#77 = ORIENTED_EDGE ( 'NONE', *, *, #121, .F. ) ;
#78 = ORIENTED_EDGE ( 'NONE', *, *, #128, .F. ) ;
#79 = ORIENTED_EDGE ( 'NONE', *, *, #111, .T. ) ;
#80 = ORIENTED_EDGE ( 'NONE', *, *, #123, .T. ) ;
#81 = ORIENTED_EDGE ( 'NONE', *, *, #114, .T. ) ;
#82 = ORIENTED_EDGE ( 'NONE', *, *, #122, .T. ) ;
#83 = ORIENTED_EDGE ( 'NONE', *, *, #129, .T. ) ;
#84 = ORIENTED_EDGE ( 'NONE', *, *, #113, .F. ) ;
#85 = ORIENTED_EDGE ( 'NONE', *, *, #129, .F. ) ;
#86 = ORIENTED_EDGE ( 'NONE', *, *, #110, .T. ) ;
#87 = ORIENTED_EDGE ( 'NONE', *, *, #111, .F. ) ;
#88 = ORIENTED_EDGE ( 'NONE', *, *, #122, .F. ) ;
#89 = ORIENTED_EDGE ( 'NONE', *, *, #115, .T. ) ;
#90 = ORIENTED_EDGE ( 'NONE', *, *, #128, .T. ) ;
#91 = ORIENTED_EDGE ( 'NONE', *, *, #109, .F. ) ;
#92 = ORIENTED_EDGE ( 'NONE', *, *, #112, .T. ) ;
#93 = ORIENTED_EDGE ( 'NONE', *, *, #109, .T. ) ;
#94 = VERTEX_POINT ( 'NONE', #98 ) ;
#95 = CARTESIAN_POINT ( 'NONE',  ( -20.00000000000000000, -2.500000000000002200, -500.0000000000000000 ) ) ;
#96 = LINE ( 'NONE', #103, #47 ) ;
#97 = VERTEX_POINT ( 'NONE', #58 ) ;
#98 = CARTESIAN_POINT ( 'NONE',  ( 20.00000000000000000, 2.500000000000000000, 500.0000000000000000 ) ) ;
#99 = CARTESIAN_POINT ( 'NONE',  ( 20.00000000000000000, -2.500000000000000000, -500.0000000000000000 ) ) ;
#100 = DIRECTION ( 'NONE',  ( -0.0000000000000000000, -0.0000000000000000000, -1.000000000000000000 ) ) ;
#101 = EDGE_LOOP ( 'NONE', ( #77, #75, #74, #78 ) ) ;
#102 = EDGE_LOOP ( 'NONE', ( #81, #80, #79, #83 ) ) ;
#103 = CARTESIAN_POINT ( 'NONE',  ( -20.00000000000000000, -2.500000000000002200, 500.0000000000000000 ) ) ;
#104 = VERTEX_POINT ( 'NONE', #99 ) ;
#105 = VERTEX_POINT ( 'NONE', #106 ) ;
#106 = CARTESIAN_POINT ( 'NONE',  ( 20.00000000000000000, 2.500000000000000000, -500.0000000000000000 ) ) ;
#107 = APPLICATION_CONTEXT ( 'configuration controlled 3d designs of mechanical parts and assemblies' ) ;
#108 = APPLICATION_CONTEXT ( 'configuration controlled 3d designs of mechanical parts and assemblies' ) ;
#109 = EDGE_CURVE ( 'NONE', #97, #70, #96, .T. ) ;
#110 = EDGE_CURVE ( 'NONE', #105, #71, #145, .T. ) ;
#111 = EDGE_CURVE ( 'NONE', #57, #94, #149, .T. ) ;
#112 = EDGE_CURVE ( 'NONE', #104, #105, #152, .T. ) ;
#113 = EDGE_CURVE ( 'NONE', #61, #71, #155, .T. ) ;
#114 = EDGE_CURVE ( 'NONE', #61, #97, #157, .T. ) ;
#115 = EDGE_CURVE ( 'NONE', #57, #104, #160, .T. ) ;
#116 = ADVANCED_FACE ( 'NONE', ( #18 ), #65, .F. ) ;
#117 = ADVANCED_FACE ( 'NONE', ( #43 ), #143, .T. ) ;
#118 = APPROVAL ( #211, 'UNSPECIFIED' ) ;
#119 = ADVANCED_FACE ( 'NONE', ( #49 ), #168, .F. ) ;
#120 = ADVANCED_FACE ( 'NONE', ( #24 ), #172, .F. ) ;
#121 = EDGE_CURVE ( 'NONE', #71, #70, #176, .T. ) ;
#122 = EDGE_CURVE ( 'NONE', #94, #105, #179, .T. ) ;
#123 = EDGE_CURVE ( 'NONE', #97, #57, #182, .T. ) ;
#124 = ADVANCED_FACE ( 'NONE', ( #36 ), #177, .F. ) ;
#125 = LOCAL_TIME ( 15, 37, 58.00000000000000000, #44 ) ;
#126 = CC_DESIGN_PERSON_AND_ORGANIZATION_ASSIGNMENT ( #207, #208, ( #141 ) ) ;
#127 = ADVANCED_FACE ( 'NONE', ( #28 ), #188, .F. ) ;
#128 = EDGE_CURVE ( 'NONE', #70, #104, #192, .T. ) ;
#129 = EDGE_CURVE ( 'NONE', #94, #61, #195, .T. ) ;
#130 = CC_DESIGN_PERSON_AND_ORGANIZATION_ASSIGNMENT ( #215, #216, ( #132 ) ) ;
#131 = LOCAL_TIME ( 15, 37, 58.00000000000000000, #53 ) ;
#132 = PRODUCT_DEFINITION ( 'UNKNOWN', '', #19, #7 ) ;
#133 = CC_DESIGN_DATE_AND_TIME_ASSIGNMENT ( #217, #218, ( #132 ) ) ;
#134 = APPROVAL ( #220, 'UNSPECIFIED' ) ;
#135 = LOCAL_TIME ( 15, 37, 58.00000000000000000, #31 ) ;
#136 = CC_DESIGN_PERSON_AND_ORGANIZATION_ASSIGNMENT ( #224, #225, ( #19 ) ) ;
#137 = CC_DESIGN_PERSON_AND_ORGANIZATION_ASSIGNMENT ( #226, #227, ( #19 ) ) ;
#138 = CC_DESIGN_PERSON_AND_ORGANIZATION_ASSIGNMENT ( #229, #230, ( #22 ) ) ;
#139 = LOCAL_TIME ( 15, 37, 58.00000000000000000, #41 ) ;
#140 = CC_DESIGN_DATE_AND_TIME_ASSIGNMENT ( #231, #232, ( #22 ) ) ;
#141 = PRODUCT ( 'sone3D', 'sone3D', '', ( #206 ) ) ;
#142 = CARTESIAN_POINT ( 'NONE',  ( -20.00000000000000000, 2.500000000000002200, -500.0000000000000000 ) ) ;
#143 = PLANE ( 'NONE',  #10 ) ;
#144 = DIRECTION ( 'NONE',  ( -0.0000000000000000000, 0.0000000000000000000, 1.000000000000000000 ) ) ;
#145 = LINE ( 'NONE', #147, #40 ) ;
#146 = DIRECTION ( 'NONE',  ( -0.0000000000000000000, -0.0000000000000000000, -1.000000000000000000 ) ) ;
#147 = CARTESIAN_POINT ( 'NONE',  ( -20.00000000000000000, 2.500000000000002200, -500.0000000000000000 ) ) ;
#148 = DIRECTION ( 'NONE',  ( -1.000000000000000000, 5.421010862427522200E-017, -0.0000000000000000000 ) ) ;
#149 = LINE ( 'NONE', #150, #35 ) ;
#150 = CARTESIAN_POINT ( 'NONE',  ( 20.00000000000000000, 2.500000000000000000, 500.0000000000000000 ) ) ;
#151 = DIRECTION ( 'NONE',  ( -0.0000000000000000000, 1.000000000000000000, -0.0000000000000000000 ) ) ;
#152 = LINE ( 'NONE', #153, #34 ) ;
#153 = CARTESIAN_POINT ( 'NONE',  ( 20.00000000000000000, 2.500000000000000000, -500.0000000000000000 ) ) ;
#154 = DIRECTION ( 'NONE',  ( -0.0000000000000000000, 1.000000000000000000, -0.0000000000000000000 ) ) ;
#155 = LINE ( 'NONE', #156, #52 ) ;
#156 = CARTESIAN_POINT ( 'NONE',  ( -20.00000000000000000, 2.500000000000002200, 500.0000000000000000 ) ) ;
#157 = LINE ( 'NONE', #158, #17 ) ;
#158 = CARTESIAN_POINT ( 'NONE',  ( -20.00000000000000000, 2.500000000000002200, 500.0000000000000000 ) ) ;
#159 = DIRECTION ( 'NONE',  ( 0.0000000000000000000, -1.000000000000000000, 0.0000000000000000000 ) ) ;
#160 = LINE ( 'NONE', #161, #38 ) ;
#161 = CARTESIAN_POINT ( 'NONE',  ( 20.00000000000000000, -2.500000000000000000, 500.0000000000000000 ) ) ;
#162 = DIRECTION ( 'NONE',  ( -0.0000000000000000000, -0.0000000000000000000, -1.000000000000000000 ) ) ;
#163 = CARTESIAN_POINT ( 'NONE',  ( -20.00000000000000000, -2.500000000000002200, 500.0000000000000000 ) ) ;
#164 = DIRECTION ( 'NONE',  ( -5.421010862427522200E-017, 1.000000000000000000, 0.0000000000000000000 ) ) ;
#165 = DIRECTION ( 'NONE',  ( -1.000000000000000000, -5.421010862427522200E-017, 0.0000000000000000000 ) ) ;
#166 = CARTESIAN_POINT ( 'NONE',  ( 0.0000000000000000000, 0.0000000000000000000, 500.0000000000000000 ) ) ;
#167 = DIRECTION ( 'NONE',  ( 1.000000000000000000, 0.0000000000000000000, 0.0000000000000000000 ) ) ;
#168 = PLANE ( 'NONE',  #30 ) ;
#169 = CARTESIAN_POINT ( 'NONE',  ( -20.00000000000000000, 2.500000000000002200, 500.0000000000000000 ) ) ;
#170 = DIRECTION ( 'NONE',  ( 1.000000000000000000, 0.0000000000000000000, -0.0000000000000000000 ) ) ;
#171 = DIRECTION ( 'NONE',  ( -0.0000000000000000000, 0.0000000000000000000, -1.000000000000000000 ) ) ;
#172 = PLANE ( 'NONE',  #51 ) ;
#173 = CARTESIAN_POINT ( 'NONE',  ( -20.00000000000000000, 2.500000000000002200, 500.0000000000000000 ) ) ;
#174 = DIRECTION ( 'NONE',  ( -5.421010862427522200E-017, -1.000000000000000000, 0.0000000000000000000 ) ) ;
#175 = DIRECTION ( 'NONE',  ( 1.000000000000000000, -5.421010862427522200E-017, 0.0000000000000000000 ) ) ;
#176 = LINE ( 'NONE', #142, #37 ) ;
#177 = PLANE ( 'NONE',  #14 ) ;
#178 = DIRECTION ( 'NONE',  ( 0.0000000000000000000, -1.000000000000000000, 0.0000000000000000000 ) ) ;
#179 = LINE ( 'NONE', #180, #55 ) ;
#180 = CARTESIAN_POINT ( 'NONE',  ( 20.00000000000000000, 2.500000000000000000, 500.0000000000000000 ) ) ;
#181 = DIRECTION ( 'NONE',  ( -0.0000000000000000000, -0.0000000000000000000, -1.000000000000000000 ) ) ;
#182 = LINE ( 'NONE', #183, #11 ) ;
#183 = CARTESIAN_POINT ( 'NONE',  ( -20.00000000000000000, -2.500000000000002200, 500.0000000000000000 ) ) ;
#184 = DIRECTION ( 'NONE',  ( 1.000000000000000000, 5.421010862427522200E-017, 0.0000000000000000000 ) ) ;
#185 = CARTESIAN_POINT ( 'NONE',  ( 20.00000000000000000, 2.500000000000000000, 500.0000000000000000 ) ) ;
#186 = DIRECTION ( 'NONE',  ( -1.000000000000000000, 0.0000000000000000000, 0.0000000000000000000 ) ) ;
#187 = DIRECTION ( 'NONE',  ( 0.0000000000000000000, 0.0000000000000000000, 1.000000000000000000 ) ) ;
#188 = PLANE ( 'NONE',  #23 ) ;
#189 = CARTESIAN_POINT ( 'NONE',  ( 0.0000000000000000000, 0.0000000000000000000, -500.0000000000000000 ) ) ;
#190 = DIRECTION ( 'NONE',  ( -0.0000000000000000000, 0.0000000000000000000, 1.000000000000000000 ) ) ;
#191 = DIRECTION ( 'NONE',  ( 1.000000000000000000, 0.0000000000000000000, 0.0000000000000000000 ) ) ;
#192 = LINE ( 'NONE', #193, #32 ) ;
#193 = CARTESIAN_POINT ( 'NONE',  ( -20.00000000000000000, -2.500000000000002200, -500.0000000000000000 ) ) ;
#194 = DIRECTION ( 'NONE',  ( 1.000000000000000000, 5.421010862427522200E-017, 0.0000000000000000000 ) ) ;
#195 = LINE ( 'NONE', #196, #50 ) ;
#196 = CARTESIAN_POINT ( 'NONE',  ( -20.00000000000000000, 2.500000000000002200, 500.0000000000000000 ) ) ;
#197 = DIRECTION ( 'NONE',  ( -1.000000000000000000, 5.421010862427522200E-017, -0.0000000000000000000 ) ) ;
#198 =( LENGTH_UNIT ( ) NAMED_UNIT ( * ) SI_UNIT ( .MILLI., .METRE. ) );
#199 =( NAMED_UNIT ( * ) PLANE_ANGLE_UNIT ( ) SI_UNIT ( $, .RADIAN. ) );
#200 =( NAMED_UNIT ( * ) SI_UNIT ( $, .STERADIAN. ) SOLID_ANGLE_UNIT ( ) );
#201 = APPLICATION_PROTOCOL_DEFINITION ( 'international standard', 'config_control_design', 1994, #108 ) ;
#202 = CARTESIAN_POINT ( 'NONE',  ( 0.0000000000000000000, 0.0000000000000000000, 0.0000000000000000000 ) ) ;
#203 = DIRECTION ( 'NONE',  ( 0.0000000000000000000, 0.0000000000000000000, 1.000000000000000000 ) ) ;
#204 = DIRECTION ( 'NONE',  ( 1.000000000000000000, 0.0000000000000000000, 0.0000000000000000000 ) ) ;
#205 = SHAPE_DEFINITION_REPRESENTATION ( #9, #4 ) ;
#206 = MECHANICAL_CONTEXT ( 'NONE', #108, 'mechanical' ) ;
#207 = PERSON_AND_ORGANIZATION ( #6, #33 ) ;
#208 = PERSON_AND_ORGANIZATION_ROLE ( 'design_owner' ) ;
#209 = APPLICATION_PROTOCOL_DEFINITION ( 'international standard', 'config_control_design', 1994, #107 ) ;
#210 = PERSON_AND_ORGANIZATION ( #6, #33 ) ;
#211 = APPROVAL_STATUS ( 'not_yet_approved' ) ;
#212 = APPROVAL_ROLE ( '' ) ;
#213 = DATE_AND_TIME ( #20, #125 ) ;
#214 = APPROVAL_DATE_TIME ( #213, #118 ) ;
#215 = PERSON_AND_ORGANIZATION ( #6, #33 ) ;
#216 = PERSON_AND_ORGANIZATION_ROLE ( 'creator' ) ;
#217 = DATE_AND_TIME ( #39, #131 ) ;
#218 = DATE_TIME_ROLE ( 'creation_date' ) ;
#219 = PERSON_AND_ORGANIZATION ( #6, #33 ) ;
#220 = APPROVAL_STATUS ( 'not_yet_approved' ) ;
#221 = APPROVAL_ROLE ( '' ) ;
#222 = DATE_AND_TIME ( #16, #135 ) ;
#223 = APPROVAL_DATE_TIME ( #222, #134 ) ;
#224 = PERSON_AND_ORGANIZATION ( #6, #33 ) ;
#225 = PERSON_AND_ORGANIZATION_ROLE ( 'creator' ) ;
#226 = PERSON_AND_ORGANIZATION ( #6, #33 ) ;
#227 = PERSON_AND_ORGANIZATION_ROLE ( 'design_supplier' ) ;
#228 = SECURITY_CLASSIFICATION_LEVEL ( 'unclassified' ) ;
#229 = PERSON_AND_ORGANIZATION ( #6, #33 ) ;
#230 = PERSON_AND_ORGANIZATION_ROLE ( 'classification_officer' ) ;
#231 = DATE_AND_TIME ( #27, #139 ) ;
#232 = DATE_TIME_ROLE ( 'classification_date' ) ;
#233 = PERSON_AND_ORGANIZATION ( #6, #33 ) ;
#234 = APPROVAL_STATUS ( 'not_yet_approved' ) ;
#235 = APPROVAL_ROLE ( '' ) ;
#236 = DATE_AND_TIME ( #13, #1 ) ;
#237 = APPROVAL_DATE_TIME ( #236, #2 ) ;
ENDSEC;
END-ISO-10303-21;
