ISO-10303-21;
HEADER;
FILE_DESCRIPTION (( 'STEP AP203' ),
    '1' );
FILE_NAME ('sone3D.STEP',
    '2013-08-09T06:37:38',
    ( '' ),
    ( '' ),
    'SwSTEP 2.0',
    'SolidWorks 2012',
    '' );
FILE_SCHEMA (( 'CONFIG_CONTROL_DESIGN' ));
ENDSEC;

DATA;
#1 = UNCERTAINTY_MEASURE_WITH_UNIT (LENGTH_MEASURE( 1.000000000000000100E-005 ), #198, 'distance_accuracy_value', 'NONE');
#2 = ADVANCED_BREP_SHAPE_REPRESENTATION ( 'sone3D', ( #6, #20 ), #53 ) ;
#3 = PERSON ( 'UNSPECIFIED', 'UNSPECIFIED', 'UNSPECIFIED', ('UNSPECIFIED'), ('UNSPECIFIED'), ('UNSPECIFIED') ) ;
#4 = PRODUCT_DEFINITION_SHAPE ( 'NONE', 'NONE',  #169 ) ;
#5 = DESIGN_CONTEXT ( 'detailed design', #135, 'design' ) ;
#6 = MANIFOLD_SOLID_BREP ( 'ÎÞ½ - µoµ1', #28 ) ;
#7 = CALENDAR_DATE ( 2013, 9, 8 ) ;
#8 = FACE_OUTER_BOUND ( 'NONE', #109, .T. ) ;
#9 = CALENDAR_DATE ( 2013, 9, 8 ) ;
#10 = VECTOR ( 'NONE', #184, 1000.000000000000000 ) ;
#11 = AXIS2_PLACEMENT_3D ( 'NONE', #61, #79, #62 ) ;
#12 = ORGANIZATION ( 'UNSPECIFIED', 'UNSPECIFIED', '' ) ;
#13 = APPROVAL_PERSON_ORGANIZATION ( #210, #155, #212 ) ;
#14 = VECTOR ( 'NONE', #181, 1000.000000000000000 ) ;
#15 = FACE_OUTER_BOUND ( 'NONE', #110, .T. ) ;
#16 = VECTOR ( 'NONE', #173, 1000.000000000000000 ) ;
#17 = FACE_OUTER_BOUND ( 'NONE', #113, .T. ) ;
#18 = VECTOR ( 'NONE', #194, 1000.000000000000000 ) ;
#19 = VECTOR ( 'NONE', #124, 1000.000000000000000 ) ;
#20 = AXIS2_PLACEMENT_3D ( 'NONE', #202, #203, #204 ) ;
#21 = AXIS2_PLACEMENT_3D ( 'NONE', #72, #71, #70 ) ;
#22 = CC_DESIGN_APPROVAL ( #148, ( #41 ) ) ;
#23 = VECTOR ( 'NONE', #83, 1000.000000000000000 ) ;
#24 = CC_DESIGN_SECURITY_CLASSIFICATION ( #39, ( #41 ) ) ;
#25 = APPROVAL_PERSON_ORGANIZATION ( #233, #137, #235 ) ;
#26 = AXIS2_PLACEMENT_3D ( 'NONE', #64, #55, #56 ) ;
#27 = VECTOR ( 'NONE', #69, 1000.000000000000000 ) ;
#28 = CLOSED_SHELL ( 'NONE', ( #156, #158, #163, #150, #159, #153 ) ) ;
#29 = COORDINATED_UNIVERSAL_TIME_OFFSET ( 9, 0, .AHEAD. ) ;
#30 = AXIS2_PLACEMENT_3D ( 'NONE', #178, #177, #176 ) ;
#31 = FACE_OUTER_BOUND ( 'NONE', #114, .T. ) ;
#32 = COORDINATED_UNIVERSAL_TIME_OFFSET ( 9, 0, .AHEAD. ) ;
#33 = VECTOR ( 'NONE', #187, 1000.000000000000000 ) ;
#34 = AXIS2_PLACEMENT_3D ( 'NONE', #123, #80, #84 ) ;
#35 = FACE_OUTER_BOUND ( 'NONE', #112, .T. ) ;
#36 = CC_DESIGN_APPROVAL ( #137, ( #39 ) ) ;
#37 = CALENDAR_DATE ( 2013, 9, 8 ) ;
#38 = FACE_OUTER_BOUND ( 'NONE', #111, .T. ) ;
#39 = SECURITY_CLASSIFICATION ( '', '', #228 ) ;
#40 = COORDINATED_UNIVERSAL_TIME_OFFSET ( 9, 0, .AHEAD. ) ;
#41 = PRODUCT_DEFINITION_FORMATION_WITH_SPECIFIED_SOURCE ( 'ANY', '', #171, .NOT_KNOWN. ) ;
#42 = COORDINATED_UNIVERSAL_TIME_OFFSET ( 9, 0, .AHEAD. ) ;
#43 = APPROVAL_PERSON_ORGANIZATION ( #219, #148, #221 ) ;
#44 = AXIS2_PLACEMENT_3D ( 'NONE', #59, #54, #65 ) ;
#45 = CALENDAR_DATE ( 2013, 9, 8 ) ;
#46 = VECTOR ( 'NONE', #179, 1000.000000000000000 ) ;
#47 = COORDINATED_UNIVERSAL_TIME_OFFSET ( 9, 0, .AHEAD. ) ;
#48 = CC_DESIGN_APPROVAL ( #155, ( #169 ) ) ;
#49 = CALENDAR_DATE ( 2013, 9, 8 ) ;
#50 = VECTOR ( 'NONE', #197, 1000.000000000000000 ) ;
#51 = VECTOR ( 'NONE', #191, 1000.000000000000000 ) ;
#52 = VECTOR ( 'NONE', #57, 1000.000000000000000 ) ;
#53 =( GEOMETRIC_REPRESENTATION_CONTEXT ( 3 ) GLOBAL_UNCERTAINTY_ASSIGNED_CONTEXT ( ( #1 ) ) GLOBAL_UNIT_ASSIGNED_CONTEXT ( ( #198, #199, #200 ) ) REPRESENTATION_CONTEXT ( 'NONE', 'WORKASPACE' ) );
#54 = DIRECTION ( 'NONE',  ( 1.000000000000000000, 0.0000000000000000000, -0.0000000000000000000 ) ) ;
#55 = DIRECTION ( 'NONE',  ( -0.0000000000000000000, 0.0000000000000000000, 1.000000000000000000 ) ) ;
#56 = DIRECTION ( 'NONE',  ( 1.000000000000000000, 0.0000000000000000000, 0.0000000000000000000 ) ) ;
#57 = DIRECTION ( 'NONE',  ( -1.000000000000000000, 6.195440985631452900E-017, -0.0000000000000000000 ) ) ;
#58 = LINE ( 'NONE', #66, #33 ) ;
#59 = CARTESIAN_POINT ( 'NONE',  ( -17.50000000000000000, 2.500000000000002200, 500.0000000000000000 ) ) ;
#60 = LINE ( 'NONE', #76, #52 ) ;
#61 = CARTESIAN_POINT ( 'NONE',  ( -17.50000000000000000, -2.500000000000002200, 500.0000000000000000 ) ) ;
#62 = DIRECTION ( 'NONE',  ( -1.000000000000000000, -6.195440985631452900E-017, 0.0000000000000000000 ) ) ;
#63 = PLANE ( 'NONE',  #11 ) ;
#64 = CARTESIAN_POINT ( 'NONE',  ( 0.0000000000000000000, 0.0000000000000000000, 500.0000000000000000 ) ) ;
#65 = DIRECTION ( 'NONE',  ( -0.0000000000000000000, 0.0000000000000000000, -1.000000000000000000 ) ) ;
#66 = CARTESIAN_POINT ( 'NONE',  ( -17.50000000000000000, -2.500000000000002200, -500.0000000000000000 ) ) ;
#67 = PLANE ( 'NONE',  #44 ) ;
#68 = VERTEX_POINT ( 'NONE', #129 ) ;
#69 = DIRECTION ( 'NONE',  ( 1.000000000000000000, 6.195440985631452900E-017, 0.0000000000000000000 ) ) ;
#70 = DIRECTION ( 'NONE',  ( 1.000000000000000000, 0.0000000000000000000, 0.0000000000000000000 ) ) ;
#71 = DIRECTION ( 'NONE',  ( -0.0000000000000000000, 0.0000000000000000000, 1.000000000000000000 ) ) ;
#72 = CARTESIAN_POINT ( 'NONE',  ( 0.0000000000000000000, 0.0000000000000000000, -500.0000000000000000 ) ) ;
#73 = CARTESIAN_POINT ( 'NONE',  ( -17.50000000000000000, -2.500000000000002200, 500.0000000000000000 ) ) ;
#74 = LINE ( 'NONE', #82, #23 ) ;
#75 = VERTEX_POINT ( 'NONE', #130 ) ;
#76 = CARTESIAN_POINT ( 'NONE',  ( -17.50000000000000000, 2.500000000000002200, 500.0000000000000000 ) ) ;
#77 = PLANE ( 'NONE',  #21 ) ;
#78 = VERTEX_POINT ( 'NONE', #131 ) ;
#79 = DIRECTION ( 'NONE',  ( -6.195440985631452900E-017, 1.000000000000000000, 0.0000000000000000000 ) ) ;
#80 = DIRECTION ( 'NONE',  ( -6.195440985631452900E-017, -1.000000000000000000, 0.0000000000000000000 ) ) ;
#81 = LINE ( 'NONE', #73, #27 ) ;
#82 = CARTESIAN_POINT ( 'NONE',  ( 17.50000000000000000, 2.500000000000000000, -500.0000000000000000 ) ) ;
#83 = DIRECTION ( 'NONE',  ( -0.0000000000000000000, 1.000000000000000000, -0.0000000000000000000 ) ) ;
#84 = DIRECTION ( 'NONE',  ( 1.000000000000000000, -6.195440985631452900E-017, 0.0000000000000000000 ) ) ;
#85 = ORIENTED_EDGE ( 'NONE', *, *, #165, .T. ) ;
#86 = ORIENTED_EDGE ( 'NONE', *, *, #151, .F. ) ;
#87 = ORIENTED_EDGE ( 'NONE', *, *, #166, .F. ) ;
#88 = ORIENTED_EDGE ( 'NONE', *, *, #168, .F. ) ;
#89 = ORIENTED_EDGE ( 'NONE', *, *, #152, .F. ) ;
#90 = ORIENTED_EDGE ( 'NONE', *, *, #162, .F. ) ;
#91 = ORIENTED_EDGE ( 'NONE', *, *, #161, .F. ) ;
#92 = ORIENTED_EDGE ( 'NONE', *, *, #160, .F. ) ;
#93 = ORIENTED_EDGE ( 'NONE', *, *, #167, .T. ) ;
#94 = ORIENTED_EDGE ( 'NONE', *, *, #151, .T. ) ;
#95 = ORIENTED_EDGE ( 'NONE', *, *, #144, .T. ) ;
#96 = ORIENTED_EDGE ( 'NONE', *, *, #164, .T. ) ;
#97 = ORIENTED_EDGE ( 'NONE', *, *, #157, .T. ) ;
#98 = ORIENTED_EDGE ( 'NONE', *, *, #165, .F. ) ;
#99 = ORIENTED_EDGE ( 'NONE', *, *, #157, .F. ) ;
#100 = ORIENTED_EDGE ( 'NONE', *, *, #162, .T. ) ;
#101 = ORIENTED_EDGE ( 'NONE', *, *, #167, .F. ) ;
#102 = ORIENTED_EDGE ( 'NONE', *, *, #164, .F. ) ;
#103 = ORIENTED_EDGE ( 'NONE', *, *, #168, .T. ) ;
#104 = ORIENTED_EDGE ( 'NONE', *, *, #160, .T. ) ;
#105 = ORIENTED_EDGE ( 'NONE', *, *, #152, .T. ) ;
#106 = ORIENTED_EDGE ( 'NONE', *, *, #166, .T. ) ;
#107 = ORIENTED_EDGE ( 'NONE', *, *, #144, .F. ) ;
#108 = ORIENTED_EDGE ( 'NONE', *, *, #161, .T. ) ;
#109 = EDGE_LOOP ( 'NONE', ( #104, #88, #86, #106 ) ) ;
#110 = EDGE_LOOP ( 'NONE', ( #105, #102, #101, #103 ) ) ;
#111 = EDGE_LOOP ( 'NONE', ( #108, #87, #107, #85 ) ) ;
#112 = EDGE_LOOP ( 'NONE', ( #100, #98, #99, #96 ) ) ;
#113 = EDGE_LOOP ( 'NONE', ( #95, #94, #93, #97 ) ) ;
#114 = EDGE_LOOP ( 'NONE', ( #91, #90, #89, #92 ) ) ;
#115 = VERTEX_POINT ( 'NONE', #132 ) ;
#116 = VERTEX_POINT ( 'NONE', #133 ) ;
#117 = VERTEX_POINT ( 'NONE', #119 ) ;
#118 = PLANE ( 'NONE',  #26 ) ;
#119 = CARTESIAN_POINT ( 'NONE',  ( 17.50000000000000000, 2.500000000000000000, -500.0000000000000000 ) ) ;
#120 = LINE ( 'NONE', #125, #19 ) ;
#121 = CARTESIAN_POINT ( 'NONE',  ( -17.50000000000000000, 2.500000000000002200, -500.0000000000000000 ) ) ;
#122 = PLANE ( 'NONE',  #34 ) ;
#123 = CARTESIAN_POINT ( 'NONE',  ( -17.50000000000000000, 2.500000000000002200, 500.0000000000000000 ) ) ;
#124 = DIRECTION ( 'NONE',  ( 0.0000000000000000000, -1.000000000000000000, 0.0000000000000000000 ) ) ;
#125 = CARTESIAN_POINT ( 'NONE',  ( -17.50000000000000000, 2.500000000000002200, 500.0000000000000000 ) ) ;
#126 = VERTEX_POINT ( 'NONE', #128 ) ;
#127 = VERTEX_POINT ( 'NONE', #121 ) ;
#128 = CARTESIAN_POINT ( 'NONE',  ( 17.50000000000000000, 2.500000000000000000, 500.0000000000000000 ) ) ;
#129 = CARTESIAN_POINT ( 'NONE',  ( 17.50000000000000000, -2.500000000000000000, 500.0000000000000000 ) ) ;
#130 = CARTESIAN_POINT ( 'NONE',  ( 17.50000000000000000, -2.500000000000000000, -500.0000000000000000 ) ) ;
#131 = CARTESIAN_POINT ( 'NONE',  ( -17.50000000000000000, -2.500000000000002200, 500.0000000000000000 ) ) ;
#132 = CARTESIAN_POINT ( 'NONE',  ( -17.50000000000000000, 2.500000000000002200, 500.0000000000000000 ) ) ;
#133 = CARTESIAN_POINT ( 'NONE',  ( -17.50000000000000000, -2.500000000000002200, -500.0000000000000000 ) ) ;
#134 = APPLICATION_CONTEXT ( 'configuration controlled 3d designs of mechanical parts and assemblies' ) ;
#135 = APPLICATION_CONTEXT ( 'configuration controlled 3d designs of mechanical parts and assemblies' ) ;
#136 = LOCAL_TIME ( 15, 37, 38.00000000000000000, #47 ) ;
#137 = APPROVAL ( #234, 'UNSPECIFIED' ) ;
#138 = CC_DESIGN_DATE_AND_TIME_ASSIGNMENT ( #231, #232, ( #39 ) ) ;
#139 = LOCAL_TIME ( 15, 37, 38.00000000000000000, #42 ) ;
#140 = CC_DESIGN_PERSON_AND_ORGANIZATION_ASSIGNMENT ( #229, #230, ( #39 ) ) ;
#141 = CC_DESIGN_PERSON_AND_ORGANIZATION_ASSIGNMENT ( #226, #227, ( #41 ) ) ;
#142 = CC_DESIGN_PERSON_AND_ORGANIZATION_ASSIGNMENT ( #224, #225, ( #41 ) ) ;
#143 = CC_DESIGN_PERSON_AND_ORGANIZATION_ASSIGNMENT ( #215, #216, ( #169 ) ) ;
#144 = EDGE_CURVE ( 'NONE', #115, #78, #120, .T. ) ;
#145 = LOCAL_TIME ( 15, 37, 38.00000000000000000, #40 ) ;
#146 = LOCAL_TIME ( 15, 37, 38.00000000000000000, #29 ) ;
#147 = CC_DESIGN_DATE_AND_TIME_ASSIGNMENT ( #217, #218, ( #169 ) ) ;
#148 = APPROVAL ( #220, 'UNSPECIFIED' ) ;
#149 = LOCAL_TIME ( 15, 37, 38.00000000000000000, #32 ) ;
#150 = ADVANCED_FACE ( 'NONE', ( #35 ), #122, .F. ) ;
#151 = EDGE_CURVE ( 'NONE', #78, #68, #81, .T. ) ;
#152 = EDGE_CURVE ( 'NONE', #75, #117, #74, .T. ) ;
#153 = ADVANCED_FACE ( 'NONE', ( #31 ), #77, .F. ) ;
#154 = CC_DESIGN_PERSON_AND_ORGANIZATION_ASSIGNMENT ( #207, #208, ( #171 ) ) ;
#155 = APPROVAL ( #211, 'UNSPECIFIED' ) ;
#156 = ADVANCED_FACE ( 'NONE', ( #38 ), #67, .F. ) ;
#157 = EDGE_CURVE ( 'NONE', #126, #115, #60, .T. ) ;
#158 = ADVANCED_FACE ( 'NONE', ( #8 ), #63, .F. ) ;
#159 = ADVANCED_FACE ( 'NONE', ( #17 ), #118, .T. ) ;
#160 = EDGE_CURVE ( 'NONE', #116, #75, #58, .T. ) ;
#161 = EDGE_CURVE ( 'NONE', #127, #116, #189, .T. ) ;
#162 = EDGE_CURVE ( 'NONE', #117, #127, #180, .T. ) ;
#163 = ADVANCED_FACE ( 'NONE', ( #15 ), #188, .F. ) ;
#164 = EDGE_CURVE ( 'NONE', #126, #117, #175, .T. ) ;
#165 = EDGE_CURVE ( 'NONE', #115, #127, #172, .T. ) ;
#166 = EDGE_CURVE ( 'NONE', #78, #116, #185, .T. ) ;
#167 = EDGE_CURVE ( 'NONE', #68, #126, #192, .T. ) ;
#168 = EDGE_CURVE ( 'NONE', #68, #75, #195, .T. ) ;
#169 = PRODUCT_DEFINITION ( 'UNKNOWN', '', #41, #5 ) ;
#170 = PRODUCT_RELATED_PRODUCT_CATEGORY ( 'detail', '', ( #171 ) ) ;
#171 = PRODUCT ( 'sone3D', 'sone3D', '', ( #206 ) ) ;
#172 = LINE ( 'NONE', #183, #10 ) ;
#173 = DIRECTION ( 'NONE',  ( -0.0000000000000000000, -0.0000000000000000000, -1.000000000000000000 ) ) ;
#174 = CARTESIAN_POINT ( 'NONE',  ( 17.50000000000000000, 2.500000000000000000, 500.0000000000000000 ) ) ;
#175 = LINE ( 'NONE', #174, #16 ) ;
#176 = DIRECTION ( 'NONE',  ( 0.0000000000000000000, 0.0000000000000000000, 1.000000000000000000 ) ) ;
#177 = DIRECTION ( 'NONE',  ( -1.000000000000000000, 0.0000000000000000000, 0.0000000000000000000 ) ) ;
#178 = CARTESIAN_POINT ( 'NONE',  ( 17.50000000000000000, 2.500000000000000000, 500.0000000000000000 ) ) ;
#179 = DIRECTION ( 'NONE',  ( -1.000000000000000000, 6.195440985631452900E-017, -0.0000000000000000000 ) ) ;
#180 = LINE ( 'NONE', #182, #46 ) ;
#181 = DIRECTION ( 'NONE',  ( 0.0000000000000000000, -1.000000000000000000, 0.0000000000000000000 ) ) ;
#182 = CARTESIAN_POINT ( 'NONE',  ( -17.50000000000000000, 2.500000000000002200, -500.0000000000000000 ) ) ;
#183 = CARTESIAN_POINT ( 'NONE',  ( -17.50000000000000000, 2.500000000000002200, 500.0000000000000000 ) ) ;
#184 = DIRECTION ( 'NONE',  ( -0.0000000000000000000, -0.0000000000000000000, -1.000000000000000000 ) ) ;
#185 = LINE ( 'NONE', #186, #51 ) ;
#186 = CARTESIAN_POINT ( 'NONE',  ( -17.50000000000000000, -2.500000000000002200, 500.0000000000000000 ) ) ;
#187 = DIRECTION ( 'NONE',  ( 1.000000000000000000, 6.195440985631452900E-017, 0.0000000000000000000 ) ) ;
#188 = PLANE ( 'NONE',  #30 ) ;
#189 = LINE ( 'NONE', #190, #14 ) ;
#190 = CARTESIAN_POINT ( 'NONE',  ( -17.50000000000000000, 2.500000000000002200, -500.0000000000000000 ) ) ;
#191 = DIRECTION ( 'NONE',  ( -0.0000000000000000000, -0.0000000000000000000, -1.000000000000000000 ) ) ;
#192 = LINE ( 'NONE', #193, #18 ) ;
#193 = CARTESIAN_POINT ( 'NONE',  ( 17.50000000000000000, 2.500000000000000000, 500.0000000000000000 ) ) ;
#194 = DIRECTION ( 'NONE',  ( -0.0000000000000000000, 1.000000000000000000, -0.0000000000000000000 ) ) ;
#195 = LINE ( 'NONE', #196, #50 ) ;
#196 = CARTESIAN_POINT ( 'NONE',  ( 17.50000000000000000, -2.500000000000000000, 500.0000000000000000 ) ) ;
#197 = DIRECTION ( 'NONE',  ( -0.0000000000000000000, -0.0000000000000000000, -1.000000000000000000 ) ) ;
#198 =( LENGTH_UNIT ( ) NAMED_UNIT ( * ) SI_UNIT ( .MILLI., .METRE. ) );
#199 =( NAMED_UNIT ( * ) PLANE_ANGLE_UNIT ( ) SI_UNIT ( $, .RADIAN. ) );
#200 =( NAMED_UNIT ( * ) SI_UNIT ( $, .STERADIAN. ) SOLID_ANGLE_UNIT ( ) );
#201 = APPLICATION_PROTOCOL_DEFINITION ( 'international standard', 'config_control_design', 1994, #134 ) ;
#202 = CARTESIAN_POINT ( 'NONE',  ( 0.0000000000000000000, 0.0000000000000000000, 0.0000000000000000000 ) ) ;
#203 = DIRECTION ( 'NONE',  ( 0.0000000000000000000, 0.0000000000000000000, 1.000000000000000000 ) ) ;
#204 = DIRECTION ( 'NONE',  ( 1.000000000000000000, 0.0000000000000000000, 0.0000000000000000000 ) ) ;
#205 = SHAPE_DEFINITION_REPRESENTATION ( #4, #2 ) ;
#206 = MECHANICAL_CONTEXT ( 'NONE', #134, 'mechanical' ) ;
#207 = PERSON_AND_ORGANIZATION ( #3, #12 ) ;
#208 = PERSON_AND_ORGANIZATION_ROLE ( 'design_owner' ) ;
#209 = APPLICATION_PROTOCOL_DEFINITION ( 'international standard', 'config_control_design', 1994, #135 ) ;
#210 = PERSON_AND_ORGANIZATION ( #3, #12 ) ;
#211 = APPROVAL_STATUS ( 'not_yet_approved' ) ;
#212 = APPROVAL_ROLE ( '' ) ;
#213 = DATE_AND_TIME ( #9, #146 ) ;
#214 = APPROVAL_DATE_TIME ( #213, #155 ) ;
#215 = PERSON_AND_ORGANIZATION ( #3, #12 ) ;
#216 = PERSON_AND_ORGANIZATION_ROLE ( 'creator' ) ;
#217 = DATE_AND_TIME ( #37, #145 ) ;
#218 = DATE_TIME_ROLE ( 'creation_date' ) ;
#219 = PERSON_AND_ORGANIZATION ( #3, #12 ) ;
#220 = APPROVAL_STATUS ( 'not_yet_approved' ) ;
#221 = APPROVAL_ROLE ( '' ) ;
#222 = DATE_AND_TIME ( #7, #149 ) ;
#223 = APPROVAL_DATE_TIME ( #222, #148 ) ;
#224 = PERSON_AND_ORGANIZATION ( #3, #12 ) ;
#225 = PERSON_AND_ORGANIZATION_ROLE ( 'creator' ) ;
#226 = PERSON_AND_ORGANIZATION ( #3, #12 ) ;
#227 = PERSON_AND_ORGANIZATION_ROLE ( 'design_supplier' ) ;
#228 = SECURITY_CLASSIFICATION_LEVEL ( 'unclassified' ) ;
#229 = PERSON_AND_ORGANIZATION ( #3, #12 ) ;
#230 = PERSON_AND_ORGANIZATION_ROLE ( 'classification_officer' ) ;
#231 = DATE_AND_TIME ( #49, #139 ) ;
#232 = DATE_TIME_ROLE ( 'classification_date' ) ;
#233 = PERSON_AND_ORGANIZATION ( #3, #12 ) ;
#234 = APPROVAL_STATUS ( 'not_yet_approved' ) ;
#235 = APPROVAL_ROLE ( '' ) ;
#236 = DATE_AND_TIME ( #45, #136 ) ;
#237 = APPROVAL_DATE_TIME ( #236, #137 ) ;
ENDSEC;
END-ISO-10303-21;
