ISO-10303-21;
HEADER;
FILE_DESCRIPTION (( 'STEP AP203' ),
    '1' );
FILE_NAME ('sone3D.STEP',
    '2013-08-09T06:37:15',
    ( '' ),
    ( '' ),
    'SwSTEP 2.0',
    'SolidWorks 2012',
    '' );
FILE_SCHEMA (( 'CONFIG_CONTROL_DESIGN' ));
ENDSEC;

DATA;
#1 = ADVANCED_BREP_SHAPE_REPRESENTATION ( 'sone3D', ( #4, #36 ), #53 ) ;
#2 = UNCERTAINTY_MEASURE_WITH_UNIT (LENGTH_MEASURE( 1.000000000000000100E-005 ), #198, 'distance_accuracy_value', 'NONE');
#3 = PERSON ( 'UNSPECIFIED', 'UNSPECIFIED', 'UNSPECIFIED', ('UNSPECIFIED'), ('UNSPECIFIED'), ('UNSPECIFIED') ) ;
#4 = MANIFOLD_SOLID_BREP ( 'ÎÞ½ - µoµ1', #22 ) ;
#5 = PRODUCT_DEFINITION_SHAPE ( 'NONE', 'NONE',  #155 ) ;
#6 = DESIGN_CONTEXT ( 'detailed design', #136, 'design' ) ;
#7 = AXIS2_PLACEMENT_3D ( 'NONE', #76, #66, #65 ) ;
#8 = VECTOR ( 'NONE', #197, 1000.000000000000000 ) ;
#9 = CALENDAR_DATE ( 2013, 9, 8 ) ;
#10 = VECTOR ( 'NONE', #179, 1000.000000000000000 ) ;
#11 = AXIS2_PLACEMENT_3D ( 'NONE', #178, #176, #175 ) ;
#12 = CALENDAR_DATE ( 2013, 9, 8 ) ;
#13 = CC_DESIGN_SECURITY_CLASSIFICATION ( #26, ( #43 ) ) ;
#14 = VECTOR ( 'NONE', #69, 1000.000000000000000 ) ;
#15 = VECTOR ( 'NONE', #190, 1000.000000000000000 ) ;
#16 = FACE_OUTER_BOUND ( 'NONE', #128, .T. ) ;
#17 = CALENDAR_DATE ( 2013, 9, 8 ) ;
#18 = ORGANIZATION ( 'UNSPECIFIED', 'UNSPECIFIED', '' ) ;
#19 = COORDINATED_UNIVERSAL_TIME_OFFSET ( 9, 0, .AHEAD. ) ;
#20 = APPROVAL_PERSON_ORGANIZATION ( #210, #168, #212 ) ;
#21 = AXIS2_PLACEMENT_3D ( 'NONE', #57, #55, #62 ) ;
#22 = CLOSED_SHELL ( 'NONE', ( #159, #152, #164, #158, #160, #153 ) ) ;
#23 = VECTOR ( 'NONE', #185, 1000.000000000000000 ) ;
#24 = COORDINATED_UNIVERSAL_TIME_OFFSET ( 9, 0, .AHEAD. ) ;
#25 = FACE_OUTER_BOUND ( 'NONE', #118, .T. ) ;
#26 = SECURITY_CLASSIFICATION ( '', '', #228 ) ;
#27 = CC_DESIGN_APPROVAL ( #150, ( #43 ) ) ;
#28 = CC_DESIGN_APPROVAL ( #138, ( #26 ) ) ;
#29 = VECTOR ( 'NONE', #182, 1000.000000000000000 ) ;
#30 = AXIS2_PLACEMENT_3D ( 'NONE', #56, #79, #60 ) ;
#31 = COORDINATED_UNIVERSAL_TIME_OFFSET ( 9, 0, .AHEAD. ) ;
#32 = FACE_OUTER_BOUND ( 'NONE', #119, .T. ) ;
#33 = VECTOR ( 'NONE', #124, 1000.000000000000000 ) ;
#34 = FACE_OUTER_BOUND ( 'NONE', #74, .T. ) ;
#35 = COORDINATED_UNIVERSAL_TIME_OFFSET ( 9, 0, .AHEAD. ) ;
#36 = AXIS2_PLACEMENT_3D ( 'NONE', #202, #203, #204 ) ;
#37 = FACE_OUTER_BOUND ( 'NONE', #127, .T. ) ;
#38 = APPROVAL_PERSON_ORGANIZATION ( #233, #138, #235 ) ;
#39 = VECTOR ( 'NONE', #77, 1000.000000000000000 ) ;
#40 = APPROVAL_PERSON_ORGANIZATION ( #219, #150, #221 ) ;
#41 = FACE_OUTER_BOUND ( 'NONE', #80, .T. ) ;
#42 = CC_DESIGN_APPROVAL ( #168, ( #155 ) ) ;
#43 = PRODUCT_DEFINITION_FORMATION_WITH_SPECIFIED_SOURCE ( 'ANY', '', #172, .NOT_KNOWN. ) ;
#44 = COORDINATED_UNIVERSAL_TIME_OFFSET ( 9, 0, .AHEAD. ) ;
#45 = VECTOR ( 'NONE', #85, 1000.000000000000000 ) ;
#46 = AXIS2_PLACEMENT_3D ( 'NONE', #82, #84, #83 ) ;
#47 = CALENDAR_DATE ( 2013, 9, 8 ) ;
#48 = VECTOR ( 'NONE', #194, 1000.000000000000000 ) ;
#49 = AXIS2_PLACEMENT_3D ( 'NONE', #73, #72, #70 ) ;
#50 = VECTOR ( 'NONE', #191, 1000.000000000000000 ) ;
#51 = VECTOR ( 'NONE', #59, 1000.000000000000000 ) ;
#52 = CALENDAR_DATE ( 2013, 9, 8 ) ;
#53 =( GEOMETRIC_REPRESENTATION_CONTEXT ( 3 ) GLOBAL_UNCERTAINTY_ASSIGNED_CONTEXT ( ( #2 ) ) GLOBAL_UNIT_ASSIGNED_CONTEXT ( ( #198, #199, #200 ) ) REPRESENTATION_CONTEXT ( 'NONE', 'WORKASPACE' ) );
#54 = CARTESIAN_POINT ( 'NONE',  ( -15.00000000000000000, 2.500000000000002200, 500.0000000000000000 ) ) ;
#55 = DIRECTION ( 'NONE',  ( 1.000000000000000000, 0.0000000000000000000, -0.0000000000000000000 ) ) ;
#56 = CARTESIAN_POINT ( 'NONE',  ( 0.0000000000000000000, 0.0000000000000000000, 500.0000000000000000 ) ) ;
#57 = CARTESIAN_POINT ( 'NONE',  ( -15.00000000000000000, 2.500000000000002200, 500.0000000000000000 ) ) ;
#58 = PLANE ( 'NONE',  #7 ) ;
#59 = DIRECTION ( 'NONE',  ( -0.0000000000000000000, -0.0000000000000000000, -1.000000000000000000 ) ) ;
#60 = DIRECTION ( 'NONE',  ( 1.000000000000000000, 0.0000000000000000000, 0.0000000000000000000 ) ) ;
#61 = CARTESIAN_POINT ( 'NONE',  ( 15.00000000000000000, 2.500000000000000000, 500.0000000000000000 ) ) ;
#62 = DIRECTION ( 'NONE',  ( -0.0000000000000000000, 0.0000000000000000000, -1.000000000000000000 ) ) ;
#63 = PLANE ( 'NONE',  #21 ) ;
#64 = PLANE ( 'NONE',  #30 ) ;
#65 = DIRECTION ( 'NONE',  ( 1.000000000000000000, 0.0000000000000000000, 0.0000000000000000000 ) ) ;
#66 = DIRECTION ( 'NONE',  ( -0.0000000000000000000, 0.0000000000000000000, 1.000000000000000000 ) ) ;
#67 = LINE ( 'NONE', #68, #14 ) ;
#68 = CARTESIAN_POINT ( 'NONE',  ( -15.00000000000000000, -2.500000000000002200, 500.0000000000000000 ) ) ;
#69 = DIRECTION ( 'NONE',  ( -0.0000000000000000000, -0.0000000000000000000, -1.000000000000000000 ) ) ;
#70 = DIRECTION ( 'NONE',  ( 1.000000000000000000, -7.228014483236697000E-017, 0.0000000000000000000 ) ) ;
#71 = CARTESIAN_POINT ( 'NONE',  ( -15.00000000000000000, -2.500000000000002200, 500.0000000000000000 ) ) ;
#72 = DIRECTION ( 'NONE',  ( -7.228014483236697000E-017, -1.000000000000000000, 0.0000000000000000000 ) ) ;
#73 = CARTESIAN_POINT ( 'NONE',  ( -15.00000000000000000, 2.500000000000002200, 500.0000000000000000 ) ) ;
#74 = EDGE_LOOP ( 'NONE', ( #94, #117, #114, #95 ) ) ;
#75 = LINE ( 'NONE', #54, #51 ) ;
#76 = CARTESIAN_POINT ( 'NONE',  ( 0.0000000000000000000, 0.0000000000000000000, -500.0000000000000000 ) ) ;
#77 = DIRECTION ( 'NONE',  ( -0.0000000000000000000, -0.0000000000000000000, -1.000000000000000000 ) ) ;
#78 = PLANE ( 'NONE',  #49 ) ;
#79 = DIRECTION ( 'NONE',  ( -0.0000000000000000000, 0.0000000000000000000, 1.000000000000000000 ) ) ;
#80 = EDGE_LOOP ( 'NONE', ( #103, #102, #101, #105 ) ) ;
#81 = LINE ( 'NONE', #61, #39 ) ;
#82 = CARTESIAN_POINT ( 'NONE',  ( -15.00000000000000000, -2.500000000000002200, 500.0000000000000000 ) ) ;
#83 = DIRECTION ( 'NONE',  ( -1.000000000000000000, -7.228014483236697000E-017, 0.0000000000000000000 ) ) ;
#84 = DIRECTION ( 'NONE',  ( -7.228014483236697000E-017, 1.000000000000000000, 0.0000000000000000000 ) ) ;
#85 = DIRECTION ( 'NONE',  ( -1.000000000000000000, 7.228014483236697000E-017, -0.0000000000000000000 ) ) ;
#86 = VERTEX_POINT ( 'NONE', #71 ) ;
#87 = VERTEX_POINT ( 'NONE', #130 ) ;
#88 = VERTEX_POINT ( 'NONE', #131 ) ;
#89 = VERTEX_POINT ( 'NONE', #132 ) ;
#90 = VERTEX_POINT ( 'NONE', #133 ) ;
#91 = VERTEX_POINT ( 'NONE', #134 ) ;
#92 = VERTEX_POINT ( 'NONE', #120 ) ;
#93 = VERTEX_POINT ( 'NONE', #129 ) ;
#94 = ORIENTED_EDGE ( 'NONE', *, *, #162, .T. ) ;
#95 = ORIENTED_EDGE ( 'NONE', *, *, #157, .T. ) ;
#96 = ORIENTED_EDGE ( 'NONE', *, *, #169, .F. ) ;
#97 = ORIENTED_EDGE ( 'NONE', *, *, #163, .F. ) ;
#98 = ORIENTED_EDGE ( 'NONE', *, *, #165, .F. ) ;
#99 = ORIENTED_EDGE ( 'NONE', *, *, #162, .F. ) ;
#100 = ORIENTED_EDGE ( 'NONE', *, *, #161, .F. ) ;
#101 = ORIENTED_EDGE ( 'NONE', *, *, #145, .T. ) ;
#102 = ORIENTED_EDGE ( 'NONE', *, *, #166, .T. ) ;
#103 = ORIENTED_EDGE ( 'NONE', *, *, #167, .T. ) ;
#104 = ORIENTED_EDGE ( 'NONE', *, *, #156, .T. ) ;
#105 = ORIENTED_EDGE ( 'NONE', *, *, #146, .T. ) ;
#106 = ORIENTED_EDGE ( 'NONE', *, *, #157, .F. ) ;
#107 = ORIENTED_EDGE ( 'NONE', *, *, #146, .F. ) ;
#108 = ORIENTED_EDGE ( 'NONE', *, *, #163, .T. ) ;
#109 = ORIENTED_EDGE ( 'NONE', *, *, #145, .F. ) ;
#110 = ORIENTED_EDGE ( 'NONE', *, *, #156, .F. ) ;
#111 = ORIENTED_EDGE ( 'NONE', *, *, #165, .T. ) ;
#112 = ORIENTED_EDGE ( 'NONE', *, *, #161, .T. ) ;
#113 = ORIENTED_EDGE ( 'NONE', *, *, #169, .T. ) ;
#114 = ORIENTED_EDGE ( 'NONE', *, *, #167, .F. ) ;
#115 = ORIENTED_EDGE ( 'NONE', *, *, #166, .F. ) ;
#116 = ORIENTED_EDGE ( 'NONE', *, *, #154, .T. ) ;
#117 = ORIENTED_EDGE ( 'NONE', *, *, #154, .F. ) ;
#118 = EDGE_LOOP ( 'NONE', ( #112, #98, #115, #116 ) ) ;
#119 = EDGE_LOOP ( 'NONE', ( #113, #110, #109, #111 ) ) ;
#120 = CARTESIAN_POINT ( 'NONE',  ( 15.00000000000000000, 2.500000000000000000, -500.0000000000000000 ) ) ;
#121 = LINE ( 'NONE', #123, #33 ) ;
#122 = PLANE ( 'NONE',  #46 ) ;
#123 = CARTESIAN_POINT ( 'NONE',  ( 15.00000000000000000, 2.500000000000000000, 500.0000000000000000 ) ) ;
#124 = DIRECTION ( 'NONE',  ( -0.0000000000000000000, 1.000000000000000000, -0.0000000000000000000 ) ) ;
#125 = CARTESIAN_POINT ( 'NONE',  ( -15.00000000000000000, 2.500000000000002200, 500.0000000000000000 ) ) ;
#126 = LINE ( 'NONE', #125, #45 ) ;
#127 = EDGE_LOOP ( 'NONE', ( #108, #106, #107, #104 ) ) ;
#128 = EDGE_LOOP ( 'NONE', ( #99, #97, #96, #100 ) ) ;
#129 = CARTESIAN_POINT ( 'NONE',  ( -15.00000000000000000, 2.500000000000002200, -500.0000000000000000 ) ) ;
#130 = CARTESIAN_POINT ( 'NONE',  ( 15.00000000000000000, -2.500000000000000000, 500.0000000000000000 ) ) ;
#131 = CARTESIAN_POINT ( 'NONE',  ( 15.00000000000000000, 2.500000000000000000, 500.0000000000000000 ) ) ;
#132 = CARTESIAN_POINT ( 'NONE',  ( 15.00000000000000000, -2.500000000000000000, -500.0000000000000000 ) ) ;
#133 = CARTESIAN_POINT ( 'NONE',  ( -15.00000000000000000, -2.500000000000002200, -500.0000000000000000 ) ) ;
#134 = CARTESIAN_POINT ( 'NONE',  ( -15.00000000000000000, 2.500000000000002200, 500.0000000000000000 ) ) ;
#135 = APPLICATION_CONTEXT ( 'configuration controlled 3d designs of mechanical parts and assemblies' ) ;
#136 = APPLICATION_CONTEXT ( 'configuration controlled 3d designs of mechanical parts and assemblies' ) ;
#137 = LOCAL_TIME ( 15, 37, 15.00000000000000000, #44 ) ;
#138 = APPROVAL ( #234, 'UNSPECIFIED' ) ;
#139 = CC_DESIGN_DATE_AND_TIME_ASSIGNMENT ( #231, #232, ( #26 ) ) ;
#140 = LOCAL_TIME ( 15, 37, 15.00000000000000000, #35 ) ;
#141 = CC_DESIGN_PERSON_AND_ORGANIZATION_ASSIGNMENT ( #229, #230, ( #26 ) ) ;
#142 = CC_DESIGN_PERSON_AND_ORGANIZATION_ASSIGNMENT ( #226, #227, ( #43 ) ) ;
#143 = CC_DESIGN_PERSON_AND_ORGANIZATION_ASSIGNMENT ( #224, #225, ( #43 ) ) ;
#144 = CC_DESIGN_PERSON_AND_ORGANIZATION_ASSIGNMENT ( #215, #216, ( #155 ) ) ;
#145 = EDGE_CURVE ( 'NONE', #87, #88, #121, .T. ) ;
#146 = EDGE_CURVE ( 'NONE', #88, #91, #126, .T. ) ;
#147 = LOCAL_TIME ( 15, 37, 15.00000000000000000, #24 ) ;
#148 = LOCAL_TIME ( 15, 37, 15.00000000000000000, #31 ) ;
#149 = CC_DESIGN_DATE_AND_TIME_ASSIGNMENT ( #217, #218, ( #155 ) ) ;
#150 = APPROVAL ( #220, 'UNSPECIFIED' ) ;
#151 = LOCAL_TIME ( 15, 37, 15.00000000000000000, #19 ) ;
#152 = ADVANCED_FACE ( 'NONE', ( #25 ), #122, .F. ) ;
#153 = ADVANCED_FACE ( 'NONE', ( #16 ), #58, .F. ) ;
#154 = EDGE_CURVE ( 'NONE', #86, #90, #67, .T. ) ;
#155 = PRODUCT_DEFINITION ( 'UNKNOWN', '', #43, #6 ) ;
#156 = EDGE_CURVE ( 'NONE', #88, #92, #81, .T. ) ;
#157 = EDGE_CURVE ( 'NONE', #91, #93, #75, .T. ) ;
#158 = ADVANCED_FACE ( 'NONE', ( #37 ), #78, .F. ) ;
#159 = ADVANCED_FACE ( 'NONE', ( #34 ), #63, .F. ) ;
#160 = ADVANCED_FACE ( 'NONE', ( #41 ), #64, .T. ) ;
#161 = EDGE_CURVE ( 'NONE', #90, #89, #188, .T. ) ;
#162 = EDGE_CURVE ( 'NONE', #93, #90, #183, .T. ) ;
#163 = EDGE_CURVE ( 'NONE', #92, #93, #181, .T. ) ;
#164 = ADVANCED_FACE ( 'NONE', ( #32 ), #177, .F. ) ;
#165 = EDGE_CURVE ( 'NONE', #87, #89, #174, .T. ) ;
#166 = EDGE_CURVE ( 'NONE', #86, #87, #186, .T. ) ;
#167 = EDGE_CURVE ( 'NONE', #91, #86, #192, .T. ) ;
#168 = APPROVAL ( #211, 'UNSPECIFIED' ) ;
#169 = EDGE_CURVE ( 'NONE', #89, #92, #195, .T. ) ;
#170 = CC_DESIGN_PERSON_AND_ORGANIZATION_ASSIGNMENT ( #207, #208, ( #172 ) ) ;
#171 = PRODUCT_RELATED_PRODUCT_CATEGORY ( 'detail', '', ( #172 ) ) ;
#172 = PRODUCT ( 'sone3D', 'sone3D', '', ( #206 ) ) ;
#173 = CARTESIAN_POINT ( 'NONE',  ( 15.00000000000000000, -2.500000000000000000, 500.0000000000000000 ) ) ;
#174 = LINE ( 'NONE', #173, #23 ) ;
#175 = DIRECTION ( 'NONE',  ( 0.0000000000000000000, 0.0000000000000000000, 1.000000000000000000 ) ) ;
#176 = DIRECTION ( 'NONE',  ( -1.000000000000000000, 0.0000000000000000000, 0.0000000000000000000 ) ) ;
#177 = PLANE ( 'NONE',  #11 ) ;
#178 = CARTESIAN_POINT ( 'NONE',  ( 15.00000000000000000, 2.500000000000000000, 500.0000000000000000 ) ) ;
#179 = DIRECTION ( 'NONE',  ( -1.000000000000000000, 7.228014483236697000E-017, -0.0000000000000000000 ) ) ;
#180 = CARTESIAN_POINT ( 'NONE',  ( -15.00000000000000000, 2.500000000000002200, -500.0000000000000000 ) ) ;
#181 = LINE ( 'NONE', #180, #10 ) ;
#182 = DIRECTION ( 'NONE',  ( 0.0000000000000000000, -1.000000000000000000, 0.0000000000000000000 ) ) ;
#183 = LINE ( 'NONE', #184, #29 ) ;
#184 = CARTESIAN_POINT ( 'NONE',  ( -15.00000000000000000, 2.500000000000002200, -500.0000000000000000 ) ) ;
#185 = DIRECTION ( 'NONE',  ( -0.0000000000000000000, -0.0000000000000000000, -1.000000000000000000 ) ) ;
#186 = LINE ( 'NONE', #187, #50 ) ;
#187 = CARTESIAN_POINT ( 'NONE',  ( -15.00000000000000000, -2.500000000000002200, 500.0000000000000000 ) ) ;
#188 = LINE ( 'NONE', #189, #15 ) ;
#189 = CARTESIAN_POINT ( 'NONE',  ( -15.00000000000000000, -2.500000000000002200, -500.0000000000000000 ) ) ;
#190 = DIRECTION ( 'NONE',  ( 1.000000000000000000, 7.228014483236697000E-017, 0.0000000000000000000 ) ) ;
#191 = DIRECTION ( 'NONE',  ( 1.000000000000000000, 7.228014483236697000E-017, 0.0000000000000000000 ) ) ;
#192 = LINE ( 'NONE', #193, #48 ) ;
#193 = CARTESIAN_POINT ( 'NONE',  ( -15.00000000000000000, 2.500000000000002200, 500.0000000000000000 ) ) ;
#194 = DIRECTION ( 'NONE',  ( 0.0000000000000000000, -1.000000000000000000, 0.0000000000000000000 ) ) ;
#195 = LINE ( 'NONE', #196, #8 ) ;
#196 = CARTESIAN_POINT ( 'NONE',  ( 15.00000000000000000, 2.500000000000000000, -500.0000000000000000 ) ) ;
#197 = DIRECTION ( 'NONE',  ( -0.0000000000000000000, 1.000000000000000000, -0.0000000000000000000 ) ) ;
#198 =( LENGTH_UNIT ( ) NAMED_UNIT ( * ) SI_UNIT ( .MILLI., .METRE. ) );
#199 =( NAMED_UNIT ( * ) PLANE_ANGLE_UNIT ( ) SI_UNIT ( $, .RADIAN. ) );
#200 =( NAMED_UNIT ( * ) SI_UNIT ( $, .STERADIAN. ) SOLID_ANGLE_UNIT ( ) );
#201 = APPLICATION_PROTOCOL_DEFINITION ( 'international standard', 'config_control_design', 1994, #135 ) ;
#202 = CARTESIAN_POINT ( 'NONE',  ( 0.0000000000000000000, 0.0000000000000000000, 0.0000000000000000000 ) ) ;
#203 = DIRECTION ( 'NONE',  ( 0.0000000000000000000, 0.0000000000000000000, 1.000000000000000000 ) ) ;
#204 = DIRECTION ( 'NONE',  ( 1.000000000000000000, 0.0000000000000000000, 0.0000000000000000000 ) ) ;
#205 = SHAPE_DEFINITION_REPRESENTATION ( #5, #1 ) ;
#206 = MECHANICAL_CONTEXT ( 'NONE', #135, 'mechanical' ) ;
#207 = PERSON_AND_ORGANIZATION ( #3, #18 ) ;
#208 = PERSON_AND_ORGANIZATION_ROLE ( 'design_owner' ) ;
#209 = APPLICATION_PROTOCOL_DEFINITION ( 'international standard', 'config_control_design', 1994, #136 ) ;
#210 = PERSON_AND_ORGANIZATION ( #3, #18 ) ;
#211 = APPROVAL_STATUS ( 'not_yet_approved' ) ;
#212 = APPROVAL_ROLE ( '' ) ;
#213 = DATE_AND_TIME ( #12, #148 ) ;
#214 = APPROVAL_DATE_TIME ( #213, #168 ) ;
#215 = PERSON_AND_ORGANIZATION ( #3, #18 ) ;
#216 = PERSON_AND_ORGANIZATION_ROLE ( 'creator' ) ;
#217 = DATE_AND_TIME ( #9, #147 ) ;
#218 = DATE_TIME_ROLE ( 'creation_date' ) ;
#219 = PERSON_AND_ORGANIZATION ( #3, #18 ) ;
#220 = APPROVAL_STATUS ( 'not_yet_approved' ) ;
#221 = APPROVAL_ROLE ( '' ) ;
#222 = DATE_AND_TIME ( #17, #151 ) ;
#223 = APPROVAL_DATE_TIME ( #222, #150 ) ;
#224 = PERSON_AND_ORGANIZATION ( #3, #18 ) ;
#225 = PERSON_AND_ORGANIZATION_ROLE ( 'creator' ) ;
#226 = PERSON_AND_ORGANIZATION ( #3, #18 ) ;
#227 = PERSON_AND_ORGANIZATION_ROLE ( 'design_supplier' ) ;
#228 = SECURITY_CLASSIFICATION_LEVEL ( 'unclassified' ) ;
#229 = PERSON_AND_ORGANIZATION ( #3, #18 ) ;
#230 = PERSON_AND_ORGANIZATION_ROLE ( 'classification_officer' ) ;
#231 = DATE_AND_TIME ( #47, #140 ) ;
#232 = DATE_TIME_ROLE ( 'classification_date' ) ;
#233 = PERSON_AND_ORGANIZATION ( #3, #18 ) ;
#234 = APPROVAL_STATUS ( 'not_yet_approved' ) ;
#235 = APPROVAL_ROLE ( '' ) ;
#236 = DATE_AND_TIME ( #52, #137 ) ;
#237 = APPROVAL_DATE_TIME ( #236, #138 ) ;
ENDSEC;
END-ISO-10303-21;
