ISO-10303-21;
HEADER;
FILE_DESCRIPTION (( 'STEP AP203' ),
    '1' );
FILE_NAME ('sone3D.STEP',
    '2013-08-09T06:36:39',
    ( '' ),
    ( '' ),
    'SwSTEP 2.0',
    'SolidWorks 2012',
    '' );
FILE_SCHEMA (( 'CONFIG_CONTROL_DESIGN' ));
ENDSEC;

DATA;
#1 = PRODUCT_DEFINITION_SHAPE ( 'NONE', 'NONE',  #168 ) ;
#2 = DESIGN_CONTEXT ( 'detailed design', #134, 'design' ) ;
#3 = MANIFOLD_SOLID_BREP ( 'ÎÞ½ - µoµ1', #30 ) ;
#4 = SECURITY_CLASSIFICATION ( '', '', #228 ) ;
#5 = FACE_OUTER_BOUND ( 'NONE', #108, .T. ) ;
#6 = CC_DESIGN_APPROVAL ( #136, ( #4 ) ) ;
#7 = FACE_OUTER_BOUND ( 'NONE', #112, .T. ) ;
#8 = CALENDAR_DATE ( 2013, 9, 8 ) ;
#9 = FACE_OUTER_BOUND ( 'NONE', #107, .T. ) ;
#10 = VECTOR ( 'NONE', #62, 1000.000000000000000 ) ;
#11 = PRODUCT_DEFINITION_FORMATION_WITH_SPECIFIED_SOURCE ( 'ANY', '', #170, .NOT_KNOWN. ) ;
#12 = APPROVAL_PERSON_ORGANIZATION ( #219, #148, #221 ) ;
#13 = COORDINATED_UNIVERSAL_TIME_OFFSET ( 9, 0, .AHEAD. ) ;
#14 = AXIS2_PLACEMENT_3D ( 'NONE', #61, #72, #71 ) ;
#15 = COORDINATED_UNIVERSAL_TIME_OFFSET ( 9, 0, .AHEAD. ) ;
#16 = ORGANIZATION ( 'UNSPECIFIED', 'UNSPECIFIED', '' ) ;
#17 = VECTOR ( 'NONE', #191, 1000.000000000000000 ) ;
#18 = VECTOR ( 'NONE', #184, 1000.000000000000000 ) ;
#19 = FACE_OUTER_BOUND ( 'NONE', #109, .T. ) ;
#20 = CC_DESIGN_APPROVAL ( #152, ( #168 ) ) ;
#21 = COORDINATED_UNIVERSAL_TIME_OFFSET ( 9, 0, .AHEAD. ) ;
#22 = COORDINATED_UNIVERSAL_TIME_OFFSET ( 9, 0, .AHEAD. ) ;
#23 = AXIS2_PLACEMENT_3D ( 'NONE', #73, #54, #57 ) ;
#24 = CC_DESIGN_APPROVAL ( #148, ( #11 ) ) ;
#25 = VECTOR ( 'NONE', #197, 1000.000000000000000 ) ;
#26 = VECTOR ( 'NONE', #116, 1000.000000000000000 ) ;
#27 = VECTOR ( 'NONE', #75, 1000.000000000000000 ) ;
#28 = CALENDAR_DATE ( 2013, 9, 8 ) ;
#29 = APPROVAL_PERSON_ORGANIZATION ( #210, #152, #212 ) ;
#30 = CLOSED_SHELL ( 'NONE', ( #151, #150, #162, #157, #158, #154 ) ) ;
#31 = AXIS2_PLACEMENT_3D ( 'NONE', #183, #182, #181 ) ;
#32 = FACE_OUTER_BOUND ( 'NONE', #111, .T. ) ;
#33 = VECTOR ( 'NONE', #122, 1000.000000000000000 ) ;
#34 = VECTOR ( 'NONE', #178, 1000.000000000000000 ) ;
#35 = AXIS2_PLACEMENT_3D ( 'NONE', #59, #74, #51 ) ;
#36 = AXIS2_PLACEMENT_3D ( 'NONE', #79, #55, #80 ) ;
#37 = VECTOR ( 'NONE', #194, 1000.000000000000000 ) ;
#38 = CALENDAR_DATE ( 2013, 9, 8 ) ;
#39 = COORDINATED_UNIVERSAL_TIME_OFFSET ( 9, 0, .AHEAD. ) ;
#40 = AXIS2_PLACEMENT_3D ( 'NONE', #52, #118, #64 ) ;
#41 = AXIS2_PLACEMENT_3D ( 'NONE', #202, #203, #204 ) ;
#42 = CALENDAR_DATE ( 2013, 9, 8 ) ;
#43 = VECTOR ( 'NONE', #175, 1000.000000000000000 ) ;
#44 = VECTOR ( 'NONE', #125, 1000.000000000000000 ) ;
#45 = APPROVAL_PERSON_ORGANIZATION ( #233, #136, #235 ) ;
#46 = CALENDAR_DATE ( 2013, 9, 8 ) ;
#47 = VECTOR ( 'NONE', #189, 1000.000000000000000 ) ;
#48 = FACE_OUTER_BOUND ( 'NONE', #110, .T. ) ;
#49 = CC_DESIGN_SECURITY_CLASSIFICATION ( #4, ( #11 ) ) ;
#50 =( GEOMETRIC_REPRESENTATION_CONTEXT ( 3 ) GLOBAL_UNCERTAINTY_ASSIGNED_CONTEXT ( ( #172 ) ) GLOBAL_UNIT_ASSIGNED_CONTEXT ( ( #198, #199, #200 ) ) REPRESENTATION_CONTEXT ( 'NONE', 'WORKASPACE' ) );
#51 = DIRECTION ( 'NONE',  ( 1.000000000000000000, 0.0000000000000000000, 0.0000000000000000000 ) ) ;
#52 = CARTESIAN_POINT ( 'NONE',  ( 0.0000000000000000000, 0.0000000000000000000, 500.0000000000000000 ) ) ;
#53 = PLANE ( 'NONE',  #14 ) ;
#54 = DIRECTION ( 'NONE',  ( 1.000000000000000000, 0.0000000000000000000, -0.0000000000000000000 ) ) ;
#55 = DIRECTION ( 'NONE',  ( -5.204170427930421300E-017, 1.000000000000000000, 0.0000000000000000000 ) ) ;
#56 = VERTEX_POINT ( 'NONE', #128 ) ;
#57 = DIRECTION ( 'NONE',  ( -0.0000000000000000000, 0.0000000000000000000, -1.000000000000000000 ) ) ;
#58 = VERTEX_POINT ( 'NONE', #60 ) ;
#59 = CARTESIAN_POINT ( 'NONE',  ( 0.0000000000000000000, 0.0000000000000000000, -500.0000000000000000 ) ) ;
#60 = CARTESIAN_POINT ( 'NONE',  ( 12.50000000000000000, 2.500000000000000000, -500.0000000000000000 ) ) ;
#61 = CARTESIAN_POINT ( 'NONE',  ( -12.50000000000000000, 2.500000000000001300, 500.0000000000000000 ) ) ;
#62 = DIRECTION ( 'NONE',  ( -0.0000000000000000000, -0.0000000000000000000, -1.000000000000000000 ) ) ;
#63 = LINE ( 'NONE', #70, #26 ) ;
#64 = DIRECTION ( 'NONE',  ( 1.000000000000000000, 0.0000000000000000000, 0.0000000000000000000 ) ) ;
#65 = CARTESIAN_POINT ( 'NONE',  ( 12.50000000000000000, 2.500000000000000000, 500.0000000000000000 ) ) ;
#66 = PLANE ( 'NONE',  #40 ) ;
#67 = PLANE ( 'NONE',  #31 ) ;
#68 = CARTESIAN_POINT ( 'NONE',  ( -12.50000000000000000, -2.500000000000001300, 500.0000000000000000 ) ) ;
#69 = LINE ( 'NONE', #65, #10 ) ;
#70 = CARTESIAN_POINT ( 'NONE',  ( -12.50000000000000000, 2.500000000000001300, -500.0000000000000000 ) ) ;
#71 = DIRECTION ( 'NONE',  ( 1.000000000000000000, -5.204170427930421300E-017, 0.0000000000000000000 ) ) ;
#72 = DIRECTION ( 'NONE',  ( -5.204170427930421300E-017, -1.000000000000000000, 0.0000000000000000000 ) ) ;
#73 = CARTESIAN_POINT ( 'NONE',  ( -12.50000000000000000, 2.500000000000001300, 500.0000000000000000 ) ) ;
#74 = DIRECTION ( 'NONE',  ( -0.0000000000000000000, 0.0000000000000000000, 1.000000000000000000 ) ) ;
#75 = DIRECTION ( 'NONE',  ( -0.0000000000000000000, -0.0000000000000000000, -1.000000000000000000 ) ) ;
#76 = PLANE ( 'NONE',  #23 ) ;
#77 = PLANE ( 'NONE',  #35 ) ;
#78 = CARTESIAN_POINT ( 'NONE',  ( 12.50000000000000000, 2.500000000000000000, 500.0000000000000000 ) ) ;
#79 = CARTESIAN_POINT ( 'NONE',  ( -12.50000000000000000, -2.500000000000001300, 500.0000000000000000 ) ) ;
#80 = DIRECTION ( 'NONE',  ( -1.000000000000000000, -5.204170427930421300E-017, 0.0000000000000000000 ) ) ;
#81 = LINE ( 'NONE', #82, #27 ) ;
#82 = CARTESIAN_POINT ( 'NONE',  ( -12.50000000000000000, 2.500000000000001300, 500.0000000000000000 ) ) ;
#83 = ORIENTED_EDGE ( 'NONE', *, *, #167, .F. ) ;
#84 = ORIENTED_EDGE ( 'NONE', *, *, #165, .F. ) ;
#85 = ORIENTED_EDGE ( 'NONE', *, *, #144, .F. ) ;
#86 = ORIENTED_EDGE ( 'NONE', *, *, #159, .T. ) ;
#87 = ORIENTED_EDGE ( 'NONE', *, *, #166, .F. ) ;
#88 = ORIENTED_EDGE ( 'NONE', *, *, #143, .F. ) ;
#89 = ORIENTED_EDGE ( 'NONE', *, *, #159, .F. ) ;
#90 = ORIENTED_EDGE ( 'NONE', *, *, #163, .F. ) ;
#91 = ORIENTED_EDGE ( 'NONE', *, *, #161, .T. ) ;
#92 = ORIENTED_EDGE ( 'NONE', *, *, #167, .T. ) ;
#93 = ORIENTED_EDGE ( 'NONE', *, *, #164, .T. ) ;
#94 = ORIENTED_EDGE ( 'NONE', *, *, #155, .T. ) ;
#95 = ORIENTED_EDGE ( 'NONE', *, *, #160, .T. ) ;
#96 = ORIENTED_EDGE ( 'NONE', *, *, #153, .F. ) ;
#97 = ORIENTED_EDGE ( 'NONE', *, *, #160, .F. ) ;
#98 = ORIENTED_EDGE ( 'NONE', *, *, #143, .T. ) ;
#99 = ORIENTED_EDGE ( 'NONE', *, *, #161, .F. ) ;
#100 = ORIENTED_EDGE ( 'NONE', *, *, #155, .F. ) ;
#101 = ORIENTED_EDGE ( 'NONE', *, *, #144, .T. ) ;
#102 = ORIENTED_EDGE ( 'NONE', *, *, #164, .F. ) ;
#103 = ORIENTED_EDGE ( 'NONE', *, *, #163, .T. ) ;
#104 = ORIENTED_EDGE ( 'NONE', *, *, #153, .T. ) ;
#105 = ORIENTED_EDGE ( 'NONE', *, *, #166, .T. ) ;
#106 = ORIENTED_EDGE ( 'NONE', *, *, #165, .T. ) ;
#107 = EDGE_LOOP ( 'NONE', ( #103, #85, #83, #106 ) ) ;
#108 = EDGE_LOOP ( 'NONE', ( #105, #100, #99, #101 ) ) ;
#109 = EDGE_LOOP ( 'NONE', ( #86, #84, #102, #104 ) ) ;
#110 = EDGE_LOOP ( 'NONE', ( #98, #96, #97, #94 ) ) ;
#111 = EDGE_LOOP ( 'NONE', ( #93, #92, #91, #95 ) ) ;
#112 = EDGE_LOOP ( 'NONE', ( #89, #88, #87, #90 ) ) ;
#113 = VERTEX_POINT ( 'NONE', #68 ) ;
#114 = VERTEX_POINT ( 'NONE', #78 ) ;
#115 = VERTEX_POINT ( 'NONE', #130 ) ;
#116 = DIRECTION ( 'NONE',  ( 0.0000000000000000000, -1.000000000000000000, 0.0000000000000000000 ) ) ;
#117 = VERTEX_POINT ( 'NONE', #131 ) ;
#118 = DIRECTION ( 'NONE',  ( -0.0000000000000000000, 0.0000000000000000000, 1.000000000000000000 ) ) ;
#119 = VERTEX_POINT ( 'NONE', #132 ) ;
#120 = CARTESIAN_POINT ( 'NONE',  ( 12.50000000000000000, -2.500000000000000000, -500.0000000000000000 ) ) ;
#121 = CARTESIAN_POINT ( 'NONE',  ( -12.50000000000000000, 2.500000000000001300, -500.0000000000000000 ) ) ;
#122 = DIRECTION ( 'NONE',  ( -0.0000000000000000000, -0.0000000000000000000, -1.000000000000000000 ) ) ;
#123 = CARTESIAN_POINT ( 'NONE',  ( 12.50000000000000000, -2.500000000000000000, 500.0000000000000000 ) ) ;
#124 = PLANE ( 'NONE',  #36 ) ;
#125 = DIRECTION ( 'NONE',  ( -1.000000000000000000, 5.204170427930421300E-017, -0.0000000000000000000 ) ) ;
#126 = LINE ( 'NONE', #123, #33 ) ;
#127 = VERTEX_POINT ( 'NONE', #120 ) ;
#128 = CARTESIAN_POINT ( 'NONE',  ( -12.50000000000000000, -2.500000000000001300, -500.0000000000000000 ) ) ;
#129 = LINE ( 'NONE', #121, #44 ) ;
#130 = CARTESIAN_POINT ( 'NONE',  ( 12.50000000000000000, -2.500000000000000000, 500.0000000000000000 ) ) ;
#131 = CARTESIAN_POINT ( 'NONE',  ( -12.50000000000000000, 2.500000000000001300, 500.0000000000000000 ) ) ;
#132 = CARTESIAN_POINT ( 'NONE',  ( -12.50000000000000000, 2.500000000000001300, -500.0000000000000000 ) ) ;
#133 = APPLICATION_CONTEXT ( 'configuration controlled 3d designs of mechanical parts and assemblies' ) ;
#134 = APPLICATION_CONTEXT ( 'configuration controlled 3d designs of mechanical parts and assemblies' ) ;
#135 = LOCAL_TIME ( 15, 36, 39.00000000000000000, #13 ) ;
#136 = APPROVAL ( #234, 'UNSPECIFIED' ) ;
#137 = CC_DESIGN_DATE_AND_TIME_ASSIGNMENT ( #231, #232, ( #4 ) ) ;
#138 = LOCAL_TIME ( 15, 36, 39.00000000000000000, #21 ) ;
#139 = CC_DESIGN_PERSON_AND_ORGANIZATION_ASSIGNMENT ( #229, #230, ( #4 ) ) ;
#140 = CC_DESIGN_PERSON_AND_ORGANIZATION_ASSIGNMENT ( #226, #227, ( #11 ) ) ;
#141 = CC_DESIGN_PERSON_AND_ORGANIZATION_ASSIGNMENT ( #224, #225, ( #11 ) ) ;
#142 = CC_DESIGN_PERSON_AND_ORGANIZATION_ASSIGNMENT ( #215, #216, ( #168 ) ) ;
#143 = EDGE_CURVE ( 'NONE', #58, #119, #129, .T. ) ;
#144 = EDGE_CURVE ( 'NONE', #115, #127, #126, .T. ) ;
#145 = LOCAL_TIME ( 15, 36, 39.00000000000000000, #15 ) ;
#146 = LOCAL_TIME ( 15, 36, 39.00000000000000000, #39 ) ;
#147 = CC_DESIGN_DATE_AND_TIME_ASSIGNMENT ( #217, #218, ( #168 ) ) ;
#148 = APPROVAL ( #220, 'UNSPECIFIED' ) ;
#149 = LOCAL_TIME ( 15, 36, 39.00000000000000000, #22 ) ;
#150 = ADVANCED_FACE ( 'NONE', ( #9 ), #124, .F. ) ;
#151 = ADVANCED_FACE ( 'NONE', ( #19 ), #76, .F. ) ;
#152 = APPROVAL ( #211, 'UNSPECIFIED' ) ;
#153 = EDGE_CURVE ( 'NONE', #117, #119, #81, .T. ) ;
#154 = ADVANCED_FACE ( 'NONE', ( #7 ), #77, .F. ) ;
#155 = EDGE_CURVE ( 'NONE', #114, #58, #69, .T. ) ;
#156 = CC_DESIGN_PERSON_AND_ORGANIZATION_ASSIGNMENT ( #207, #208, ( #170 ) ) ;
#157 = ADVANCED_FACE ( 'NONE', ( #48 ), #53, .F. ) ;
#158 = ADVANCED_FACE ( 'NONE', ( #32 ), #66, .T. ) ;
#159 = EDGE_CURVE ( 'NONE', #119, #56, #63, .T. ) ;
#160 = EDGE_CURVE ( 'NONE', #114, #117, #193, .T. ) ;
#161 = EDGE_CURVE ( 'NONE', #115, #114, #185, .T. ) ;
#162 = ADVANCED_FACE ( 'NONE', ( #5 ), #67, .F. ) ;
#163 = EDGE_CURVE ( 'NONE', #56, #127, #180, .T. ) ;
#164 = EDGE_CURVE ( 'NONE', #117, #113, #177, .T. ) ;
#165 = EDGE_CURVE ( 'NONE', #113, #56, #174, .T. ) ;
#166 = EDGE_CURVE ( 'NONE', #127, #58, #190, .T. ) ;
#167 = EDGE_CURVE ( 'NONE', #113, #115, #195, .T. ) ;
#168 = PRODUCT_DEFINITION ( 'UNKNOWN', '', #11, #2 ) ;
#169 = PRODUCT_RELATED_PRODUCT_CATEGORY ( 'detail', '', ( #170 ) ) ;
#170 = PRODUCT ( 'sone3D', 'sone3D', '', ( #206 ) ) ;
#171 = ADVANCED_BREP_SHAPE_REPRESENTATION ( 'sone3D', ( #3, #41 ), #50 ) ;
#172 = UNCERTAINTY_MEASURE_WITH_UNIT (LENGTH_MEASURE( 1.000000000000000100E-005 ), #198, 'distance_accuracy_value', 'NONE');
#173 = PERSON ( 'UNSPECIFIED', 'UNSPECIFIED', 'UNSPECIFIED', ('UNSPECIFIED'), ('UNSPECIFIED'), ('UNSPECIFIED') ) ;
#174 = LINE ( 'NONE', #188, #47 ) ;
#175 = DIRECTION ( 'NONE',  ( 0.0000000000000000000, -1.000000000000000000, 0.0000000000000000000 ) ) ;
#176 = CARTESIAN_POINT ( 'NONE',  ( -12.50000000000000000, 2.500000000000001300, 500.0000000000000000 ) ) ;
#177 = LINE ( 'NONE', #176, #43 ) ;
#178 = DIRECTION ( 'NONE',  ( 1.000000000000000000, 5.204170427930421300E-017, 0.0000000000000000000 ) ) ;
#179 = CARTESIAN_POINT ( 'NONE',  ( -12.50000000000000000, -2.500000000000001300, -500.0000000000000000 ) ) ;
#180 = LINE ( 'NONE', #179, #34 ) ;
#181 = DIRECTION ( 'NONE',  ( 0.0000000000000000000, 0.0000000000000000000, 1.000000000000000000 ) ) ;
#182 = DIRECTION ( 'NONE',  ( -1.000000000000000000, 0.0000000000000000000, 0.0000000000000000000 ) ) ;
#183 = CARTESIAN_POINT ( 'NONE',  ( 12.50000000000000000, 2.500000000000000000, 500.0000000000000000 ) ) ;
#184 = DIRECTION ( 'NONE',  ( -0.0000000000000000000, 1.000000000000000000, -0.0000000000000000000 ) ) ;
#185 = LINE ( 'NONE', #187, #18 ) ;
#186 = CARTESIAN_POINT ( 'NONE',  ( -12.50000000000000000, 2.500000000000001300, 500.0000000000000000 ) ) ;
#187 = CARTESIAN_POINT ( 'NONE',  ( 12.50000000000000000, 2.500000000000000000, 500.0000000000000000 ) ) ;
#188 = CARTESIAN_POINT ( 'NONE',  ( -12.50000000000000000, -2.500000000000001300, 500.0000000000000000 ) ) ;
#189 = DIRECTION ( 'NONE',  ( -0.0000000000000000000, -0.0000000000000000000, -1.000000000000000000 ) ) ;
#190 = LINE ( 'NONE', #192, #37 ) ;
#191 = DIRECTION ( 'NONE',  ( -1.000000000000000000, 5.204170427930421300E-017, -0.0000000000000000000 ) ) ;
#192 = CARTESIAN_POINT ( 'NONE',  ( 12.50000000000000000, 2.500000000000000000, -500.0000000000000000 ) ) ;
#193 = LINE ( 'NONE', #186, #17 ) ;
#194 = DIRECTION ( 'NONE',  ( -0.0000000000000000000, 1.000000000000000000, -0.0000000000000000000 ) ) ;
#195 = LINE ( 'NONE', #196, #25 ) ;
#196 = CARTESIAN_POINT ( 'NONE',  ( -12.50000000000000000, -2.500000000000001300, 500.0000000000000000 ) ) ;
#197 = DIRECTION ( 'NONE',  ( 1.000000000000000000, 5.204170427930421300E-017, 0.0000000000000000000 ) ) ;
#198 =( LENGTH_UNIT ( ) NAMED_UNIT ( * ) SI_UNIT ( .MILLI., .METRE. ) );
#199 =( NAMED_UNIT ( * ) PLANE_ANGLE_UNIT ( ) SI_UNIT ( $, .RADIAN. ) );
#200 =( NAMED_UNIT ( * ) SI_UNIT ( $, .STERADIAN. ) SOLID_ANGLE_UNIT ( ) );
#201 = APPLICATION_PROTOCOL_DEFINITION ( 'international standard', 'config_control_design', 1994, #133 ) ;
#202 = CARTESIAN_POINT ( 'NONE',  ( 0.0000000000000000000, 0.0000000000000000000, 0.0000000000000000000 ) ) ;
#203 = DIRECTION ( 'NONE',  ( 0.0000000000000000000, 0.0000000000000000000, 1.000000000000000000 ) ) ;
#204 = DIRECTION ( 'NONE',  ( 1.000000000000000000, 0.0000000000000000000, 0.0000000000000000000 ) ) ;
#205 = SHAPE_DEFINITION_REPRESENTATION ( #1, #171 ) ;
#206 = MECHANICAL_CONTEXT ( 'NONE', #133, 'mechanical' ) ;
#207 = PERSON_AND_ORGANIZATION ( #173, #16 ) ;
#208 = PERSON_AND_ORGANIZATION_ROLE ( 'design_owner' ) ;
#209 = APPLICATION_PROTOCOL_DEFINITION ( 'international standard', 'config_control_design', 1994, #134 ) ;
#210 = PERSON_AND_ORGANIZATION ( #173, #16 ) ;
#211 = APPROVAL_STATUS ( 'not_yet_approved' ) ;
#212 = APPROVAL_ROLE ( '' ) ;
#213 = DATE_AND_TIME ( #42, #146 ) ;
#214 = APPROVAL_DATE_TIME ( #213, #152 ) ;
#215 = PERSON_AND_ORGANIZATION ( #173, #16 ) ;
#216 = PERSON_AND_ORGANIZATION_ROLE ( 'creator' ) ;
#217 = DATE_AND_TIME ( #8, #145 ) ;
#218 = DATE_TIME_ROLE ( 'creation_date' ) ;
#219 = PERSON_AND_ORGANIZATION ( #173, #16 ) ;
#220 = APPROVAL_STATUS ( 'not_yet_approved' ) ;
#221 = APPROVAL_ROLE ( '' ) ;
#222 = DATE_AND_TIME ( #28, #149 ) ;
#223 = APPROVAL_DATE_TIME ( #222, #148 ) ;
#224 = PERSON_AND_ORGANIZATION ( #173, #16 ) ;
#225 = PERSON_AND_ORGANIZATION_ROLE ( 'creator' ) ;
#226 = PERSON_AND_ORGANIZATION ( #173, #16 ) ;
#227 = PERSON_AND_ORGANIZATION_ROLE ( 'design_supplier' ) ;
#228 = SECURITY_CLASSIFICATION_LEVEL ( 'unclassified' ) ;
#229 = PERSON_AND_ORGANIZATION ( #173, #16 ) ;
#230 = PERSON_AND_ORGANIZATION_ROLE ( 'classification_officer' ) ;
#231 = DATE_AND_TIME ( #46, #138 ) ;
#232 = DATE_TIME_ROLE ( 'classification_date' ) ;
#233 = PERSON_AND_ORGANIZATION ( #173, #16 ) ;
#234 = APPROVAL_STATUS ( 'not_yet_approved' ) ;
#235 = APPROVAL_ROLE ( '' ) ;
#236 = DATE_AND_TIME ( #38, #135 ) ;
#237 = APPROVAL_DATE_TIME ( #236, #136 ) ;
ENDSEC;
END-ISO-10303-21;
