ISO-10303-21;
HEADER;
FILE_DESCRIPTION (( 'STEP AP203' ),
    '1' );
FILE_NAME ('sone3D.STEP',
    '2013-08-09T06:36:14',
    ( '' ),
    ( '' ),
    'SwSTEP 2.0',
    'SolidWorks 2012',
    '' );
FILE_SCHEMA (( 'CONFIG_CONTROL_DESIGN' ));
ENDSEC;

DATA;
#1 = PRODUCT_DEFINITION_SHAPE ( 'NONE', 'NONE',  #151 ) ;
#2 = MANIFOLD_SOLID_BREP ( 'ÎÞ½ - µoµ1', #14 ) ;
#3 = DESIGN_CONTEXT ( 'detailed design', #133, 'design' ) ;
#4 = VECTOR ( 'NONE', #70, 1000.000000000000000 ) ;
#5 = COORDINATED_UNIVERSAL_TIME_OFFSET ( 9, 0, .AHEAD. ) ;
#6 = AXIS2_PLACEMENT_3D ( 'NONE', #55, #59, #65 ) ;
#7 = COORDINATED_UNIVERSAL_TIME_OFFSET ( 9, 0, .AHEAD. ) ;
#8 = SECURITY_CLASSIFICATION ( '', '', #228 ) ;
#9 = PRODUCT_DEFINITION_FORMATION_WITH_SPECIFIED_SOURCE ( 'ANY', '', #169, .NOT_KNOWN. ) ;
#10 = VECTOR ( 'NONE', #79, 1000.000000000000000 ) ;
#11 = CALENDAR_DATE ( 2013, 9, 8 ) ;
#12 = APPROVAL_PERSON_ORGANIZATION ( #233, #135, #235 ) ;
#13 = VECTOR ( 'NONE', #194, 1000.000000000000000 ) ;
#14 = CLOSED_SHELL ( 'NONE', ( #150, #155, #161, #149, #157, #153 ) ) ;
#15 = CC_DESIGN_APPROVAL ( #135, ( #8 ) ) ;
#16 = CALENDAR_DATE ( 2013, 9, 8 ) ;
#17 = CC_DESIGN_APPROVAL ( #165, ( #151 ) ) ;
#18 = VECTOR ( 'NONE', #191, 1000.000000000000000 ) ;
#19 = AXIS2_PLACEMENT_3D ( 'NONE', #68, #62, #52 ) ;
#20 = FACE_OUTER_BOUND ( 'NONE', #110, .T. ) ;
#21 = VECTOR ( 'NONE', #120, 1000.000000000000000 ) ;
#22 = VECTOR ( 'NONE', #190, 1000.000000000000000 ) ;
#23 = VECTOR ( 'NONE', #182, 1000.000000000000000 ) ;
#24 = AXIS2_PLACEMENT_3D ( 'NONE', #202, #203, #204 ) ;
#25 = VECTOR ( 'NONE', #76, 1000.000000000000000 ) ;
#26 = ORGANIZATION ( 'UNSPECIFIED', 'UNSPECIFIED', '' ) ;
#27 = APPROVAL_PERSON_ORGANIZATION ( #219, #147, #221 ) ;
#28 = AXIS2_PLACEMENT_3D ( 'NONE', #82, #80, #71 ) ;
#29 = VECTOR ( 'NONE', #78, 1000.000000000000000 ) ;
#30 = CALENDAR_DATE ( 2013, 9, 8 ) ;
#31 = CC_DESIGN_APPROVAL ( #147, ( #9 ) ) ;
#32 = FACE_OUTER_BOUND ( 'NONE', #107, .T. ) ;
#33 = VECTOR ( 'NONE', #197, 1000.000000000000000 ) ;
#34 = CALENDAR_DATE ( 2013, 9, 8 ) ;
#35 = AXIS2_PLACEMENT_3D ( 'NONE', #178, #177, #176 ) ;
#36 = AXIS2_PLACEMENT_3D ( 'NONE', #63, #51, #64 ) ;
#37 = AXIS2_PLACEMENT_3D ( 'NONE', #74, #72, #60 ) ;
#38 = COORDINATED_UNIVERSAL_TIME_OFFSET ( 9, 0, .AHEAD. ) ;
#39 = COORDINATED_UNIVERSAL_TIME_OFFSET ( 9, 0, .AHEAD. ) ;
#40 = CC_DESIGN_SECURITY_CLASSIFICATION ( #8, ( #9 ) ) ;
#41 = FACE_OUTER_BOUND ( 'NONE', #108, .T. ) ;
#42 = COORDINATED_UNIVERSAL_TIME_OFFSET ( 9, 0, .AHEAD. ) ;
#43 = FACE_OUTER_BOUND ( 'NONE', #112, .T. ) ;
#44 = FACE_OUTER_BOUND ( 'NONE', #111, .T. ) ;
#45 = FACE_OUTER_BOUND ( 'NONE', #109, .T. ) ;
#46 = APPROVAL_PERSON_ORGANIZATION ( #210, #165, #212 ) ;
#47 = VECTOR ( 'NONE', #179, 1000.000000000000000 ) ;
#48 = VECTOR ( 'NONE', #185, 1000.000000000000000 ) ;
#49 = CALENDAR_DATE ( 2013, 9, 8 ) ;
#50 =( GEOMETRIC_REPRESENTATION_CONTEXT ( 3 ) GLOBAL_UNCERTAINTY_ASSIGNED_CONTEXT ( ( #172 ) ) GLOBAL_UNIT_ASSIGNED_CONTEXT ( ( #198, #199, #200 ) ) REPRESENTATION_CONTEXT ( 'NONE', 'WORKASPACE' ) );
#51 = DIRECTION ( 'NONE',  ( -6.505213034913026600E-017, 1.000000000000000000, 0.0000000000000000000 ) ) ;
#52 = DIRECTION ( 'NONE',  ( 1.000000000000000000, 0.0000000000000000000, 0.0000000000000000000 ) ) ;
#53 = LINE ( 'NONE', #54, #29 ) ;
#54 = CARTESIAN_POINT ( 'NONE',  ( -10.00000000000000000, 2.500000000000001300, 500.0000000000000000 ) ) ;
#55 = CARTESIAN_POINT ( 'NONE',  ( 0.0000000000000000000, 0.0000000000000000000, 500.0000000000000000 ) ) ;
#56 = LINE ( 'NONE', #58, #25 ) ;
#57 = PLANE ( 'NONE',  #6 ) ;
#58 = CARTESIAN_POINT ( 'NONE',  ( 10.00000000000000000, 2.500000000000000000, 500.0000000000000000 ) ) ;
#59 = DIRECTION ( 'NONE',  ( -0.0000000000000000000, 0.0000000000000000000, 1.000000000000000000 ) ) ;
#60 = DIRECTION ( 'NONE',  ( -0.0000000000000000000, 0.0000000000000000000, -1.000000000000000000 ) ) ;
#61 = PLANE ( 'NONE',  #36 ) ;
#62 = DIRECTION ( 'NONE',  ( -0.0000000000000000000, 0.0000000000000000000, 1.000000000000000000 ) ) ;
#63 = CARTESIAN_POINT ( 'NONE',  ( -10.00000000000000000, -2.500000000000001300, 500.0000000000000000 ) ) ;
#64 = DIRECTION ( 'NONE',  ( -1.000000000000000000, -6.505213034913026600E-017, 0.0000000000000000000 ) ) ;
#65 = DIRECTION ( 'NONE',  ( 1.000000000000000000, 0.0000000000000000000, 0.0000000000000000000 ) ) ;
#66 = CARTESIAN_POINT ( 'NONE',  ( 10.00000000000000000, -2.500000000000000000, 500.0000000000000000 ) ) ;
#67 = PLANE ( 'NONE',  #37 ) ;
#68 = CARTESIAN_POINT ( 'NONE',  ( 0.0000000000000000000, 0.0000000000000000000, -500.0000000000000000 ) ) ;
#69 = PLANE ( 'NONE',  #19 ) ;
#70 = DIRECTION ( 'NONE',  ( -0.0000000000000000000, -0.0000000000000000000, -1.000000000000000000 ) ) ;
#71 = DIRECTION ( 'NONE',  ( 1.000000000000000000, -6.505213034913026600E-017, 0.0000000000000000000 ) ) ;
#72 = DIRECTION ( 'NONE',  ( 1.000000000000000000, 0.0000000000000000000, -0.0000000000000000000 ) ) ;
#73 = CARTESIAN_POINT ( 'NONE',  ( -10.00000000000000000, -2.500000000000001300, 500.0000000000000000 ) ) ;
#74 = CARTESIAN_POINT ( 'NONE',  ( -10.00000000000000000, 2.500000000000001300, 500.0000000000000000 ) ) ;
#75 = VERTEX_POINT ( 'NONE', #66 ) ;
#76 = DIRECTION ( 'NONE',  ( -0.0000000000000000000, -0.0000000000000000000, -1.000000000000000000 ) ) ;
#77 = CARTESIAN_POINT ( 'NONE',  ( 10.00000000000000000, 2.500000000000000000, 500.0000000000000000 ) ) ;
#78 = DIRECTION ( 'NONE',  ( 0.0000000000000000000, -1.000000000000000000, 0.0000000000000000000 ) ) ;
#79 = DIRECTION ( 'NONE',  ( -1.000000000000000000, 6.505213034913026600E-017, -0.0000000000000000000 ) ) ;
#80 = DIRECTION ( 'NONE',  ( -6.505213034913026600E-017, -1.000000000000000000, 0.0000000000000000000 ) ) ;
#81 = LINE ( 'NONE', #73, #4 ) ;
#82 = CARTESIAN_POINT ( 'NONE',  ( -10.00000000000000000, 2.500000000000001300, 500.0000000000000000 ) ) ;
#83 = ORIENTED_EDGE ( 'NONE', *, *, #164, .F. ) ;
#84 = ORIENTED_EDGE ( 'NONE', *, *, #163, .T. ) ;
#85 = ORIENTED_EDGE ( 'NONE', *, *, #162, .F. ) ;
#86 = ORIENTED_EDGE ( 'NONE', *, *, #142, .F. ) ;
#87 = ORIENTED_EDGE ( 'NONE', *, *, #144, .F. ) ;
#88 = ORIENTED_EDGE ( 'NONE', *, *, #163, .F. ) ;
#89 = ORIENTED_EDGE ( 'NONE', *, *, #158, .F. ) ;
#90 = ORIENTED_EDGE ( 'NONE', *, *, #160, .T. ) ;
#91 = ORIENTED_EDGE ( 'NONE', *, *, #162, .T. ) ;
#92 = ORIENTED_EDGE ( 'NONE', *, *, #154, .T. ) ;
#93 = ORIENTED_EDGE ( 'NONE', *, *, #156, .T. ) ;
#94 = ORIENTED_EDGE ( 'NONE', *, *, #159, .T. ) ;
#95 = ORIENTED_EDGE ( 'NONE', *, *, #166, .F. ) ;
#96 = ORIENTED_EDGE ( 'NONE', *, *, #159, .F. ) ;
#97 = ORIENTED_EDGE ( 'NONE', *, *, #144, .T. ) ;
#98 = ORIENTED_EDGE ( 'NONE', *, *, #160, .F. ) ;
#99 = ORIENTED_EDGE ( 'NONE', *, *, #156, .F. ) ;
#100 = ORIENTED_EDGE ( 'NONE', *, *, #164, .T. ) ;
#101 = ORIENTED_EDGE ( 'NONE', *, *, #152, .F. ) ;
#102 = ORIENTED_EDGE ( 'NONE', *, *, #158, .T. ) ;
#103 = ORIENTED_EDGE ( 'NONE', *, *, #166, .T. ) ;
#104 = ORIENTED_EDGE ( 'NONE', *, *, #142, .T. ) ;
#105 = ORIENTED_EDGE ( 'NONE', *, *, #152, .T. ) ;
#106 = ORIENTED_EDGE ( 'NONE', *, *, #154, .F. ) ;
#107 = EDGE_LOOP ( 'NONE', ( #102, #83, #85, #105 ) ) ;
#108 = EDGE_LOOP ( 'NONE', ( #104, #99, #98, #100 ) ) ;
#109 = EDGE_LOOP ( 'NONE', ( #84, #101, #106, #103 ) ) ;
#110 = EDGE_LOOP ( 'NONE', ( #97, #95, #96, #93 ) ) ;
#111 = EDGE_LOOP ( 'NONE', ( #92, #91, #90, #94 ) ) ;
#112 = EDGE_LOOP ( 'NONE', ( #88, #87, #86, #89 ) ) ;
#113 = VERTEX_POINT ( 'NONE', #77 ) ;
#114 = VERTEX_POINT ( 'NONE', #128 ) ;
#115 = VERTEX_POINT ( 'NONE', #129 ) ;
#116 = VERTEX_POINT ( 'NONE', #130 ) ;
#117 = VERTEX_POINT ( 'NONE', #131 ) ;
#118 = CARTESIAN_POINT ( 'NONE',  ( -10.00000000000000000, -2.500000000000001300, -500.0000000000000000 ) ) ;
#119 = CARTESIAN_POINT ( 'NONE',  ( 10.00000000000000000, 2.500000000000000000, -500.0000000000000000 ) ) ;
#120 = DIRECTION ( 'NONE',  ( -0.0000000000000000000, 1.000000000000000000, -0.0000000000000000000 ) ) ;
#121 = PLANE ( 'NONE',  #28 ) ;
#122 = CARTESIAN_POINT ( 'NONE',  ( -10.00000000000000000, 2.500000000000001300, -500.0000000000000000 ) ) ;
#123 = LINE ( 'NONE', #122, #10 ) ;
#124 = LINE ( 'NONE', #119, #21 ) ;
#125 = VERTEX_POINT ( 'NONE', #118 ) ;
#126 = VERTEX_POINT ( 'NONE', #127 ) ;
#127 = CARTESIAN_POINT ( 'NONE',  ( -10.00000000000000000, 2.500000000000001300, 500.0000000000000000 ) ) ;
#128 = CARTESIAN_POINT ( 'NONE',  ( 10.00000000000000000, -2.500000000000000000, -500.0000000000000000 ) ) ;
#129 = CARTESIAN_POINT ( 'NONE',  ( -10.00000000000000000, -2.500000000000001300, 500.0000000000000000 ) ) ;
#130 = CARTESIAN_POINT ( 'NONE',  ( -10.00000000000000000, 2.500000000000001300, -500.0000000000000000 ) ) ;
#131 = CARTESIAN_POINT ( 'NONE',  ( 10.00000000000000000, 2.500000000000000000, -500.0000000000000000 ) ) ;
#132 = APPLICATION_CONTEXT ( 'configuration controlled 3d designs of mechanical parts and assemblies' ) ;
#133 = APPLICATION_CONTEXT ( 'configuration controlled 3d designs of mechanical parts and assemblies' ) ;
#134 = LOCAL_TIME ( 15, 36, 14.00000000000000000, #38 ) ;
#135 = APPROVAL ( #234, 'UNSPECIFIED' ) ;
#136 = CC_DESIGN_DATE_AND_TIME_ASSIGNMENT ( #231, #232, ( #8 ) ) ;
#137 = LOCAL_TIME ( 15, 36, 14.00000000000000000, #5 ) ;
#138 = CC_DESIGN_PERSON_AND_ORGANIZATION_ASSIGNMENT ( #229, #230, ( #8 ) ) ;
#139 = CC_DESIGN_PERSON_AND_ORGANIZATION_ASSIGNMENT ( #226, #227, ( #9 ) ) ;
#140 = CC_DESIGN_PERSON_AND_ORGANIZATION_ASSIGNMENT ( #224, #225, ( #9 ) ) ;
#141 = CC_DESIGN_PERSON_AND_ORGANIZATION_ASSIGNMENT ( #215, #216, ( #151 ) ) ;
#142 = EDGE_CURVE ( 'NONE', #114, #117, #124, .T. ) ;
#143 = LOCAL_TIME ( 15, 36, 14.00000000000000000, #39 ) ;
#144 = EDGE_CURVE ( 'NONE', #117, #116, #123, .T. ) ;
#145 = LOCAL_TIME ( 15, 36, 14.00000000000000000, #7 ) ;
#146 = CC_DESIGN_DATE_AND_TIME_ASSIGNMENT ( #217, #218, ( #151 ) ) ;
#147 = APPROVAL ( #220, 'UNSPECIFIED' ) ;
#148 = LOCAL_TIME ( 15, 36, 14.00000000000000000, #42 ) ;
#149 = ADVANCED_FACE ( 'NONE', ( #20 ), #121, .F. ) ;
#150 = ADVANCED_FACE ( 'NONE', ( #45 ), #67, .F. ) ;
#151 = PRODUCT_DEFINITION ( 'UNKNOWN', '', #9, #3 ) ;
#152 = EDGE_CURVE ( 'NONE', #115, #125, #81, .T. ) ;
#153 = ADVANCED_FACE ( 'NONE', ( #43 ), #69, .F. ) ;
#154 = EDGE_CURVE ( 'NONE', #126, #115, #53, .T. ) ;
#155 = ADVANCED_FACE ( 'NONE', ( #32 ), #61, .F. ) ;
#156 = EDGE_CURVE ( 'NONE', #113, #117, #56, .T. ) ;
#157 = ADVANCED_FACE ( 'NONE', ( #44 ), #57, .T. ) ;
#158 = EDGE_CURVE ( 'NONE', #125, #114, #188, .T. ) ;
#159 = EDGE_CURVE ( 'NONE', #113, #126, #183, .T. ) ;
#160 = EDGE_CURVE ( 'NONE', #75, #113, #181, .T. ) ;
#161 = ADVANCED_FACE ( 'NONE', ( #41 ), #174, .F. ) ;
#162 = EDGE_CURVE ( 'NONE', #115, #75, #175, .T. ) ;
#163 = EDGE_CURVE ( 'NONE', #116, #125, #186, .T. ) ;
#164 = EDGE_CURVE ( 'NONE', #75, #114, #192, .T. ) ;
#165 = APPROVAL ( #211, 'UNSPECIFIED' ) ;
#166 = EDGE_CURVE ( 'NONE', #126, #116, #195, .T. ) ;
#167 = CC_DESIGN_PERSON_AND_ORGANIZATION_ASSIGNMENT ( #207, #208, ( #169 ) ) ;
#168 = PRODUCT_RELATED_PRODUCT_CATEGORY ( 'detail', '', ( #169 ) ) ;
#169 = PRODUCT ( 'sone3D', 'sone3D', '', ( #206 ) ) ;
#170 = ADVANCED_BREP_SHAPE_REPRESENTATION ( 'sone3D', ( #2, #24 ), #50 ) ;
#171 = PERSON ( 'UNSPECIFIED', 'UNSPECIFIED', 'UNSPECIFIED', ('UNSPECIFIED'), ('UNSPECIFIED'), ('UNSPECIFIED') ) ;
#172 = UNCERTAINTY_MEASURE_WITH_UNIT (LENGTH_MEASURE( 1.000000000000000100E-005 ), #198, 'distance_accuracy_value', 'NONE');
#173 = CARTESIAN_POINT ( 'NONE',  ( -10.00000000000000000, -2.500000000000001300, 500.0000000000000000 ) ) ;
#174 = PLANE ( 'NONE',  #35 ) ;
#175 = LINE ( 'NONE', #173, #48 ) ;
#176 = DIRECTION ( 'NONE',  ( 0.0000000000000000000, 0.0000000000000000000, 1.000000000000000000 ) ) ;
#177 = DIRECTION ( 'NONE',  ( -1.000000000000000000, 0.0000000000000000000, 0.0000000000000000000 ) ) ;
#178 = CARTESIAN_POINT ( 'NONE',  ( 10.00000000000000000, 2.500000000000000000, 500.0000000000000000 ) ) ;
#179 = DIRECTION ( 'NONE',  ( -0.0000000000000000000, 1.000000000000000000, -0.0000000000000000000 ) ) ;
#180 = CARTESIAN_POINT ( 'NONE',  ( 10.00000000000000000, 2.500000000000000000, 500.0000000000000000 ) ) ;
#181 = LINE ( 'NONE', #180, #47 ) ;
#182 = DIRECTION ( 'NONE',  ( -1.000000000000000000, 6.505213034913026600E-017, -0.0000000000000000000 ) ) ;
#183 = LINE ( 'NONE', #184, #23 ) ;
#184 = CARTESIAN_POINT ( 'NONE',  ( -10.00000000000000000, 2.500000000000001300, 500.0000000000000000 ) ) ;
#185 = DIRECTION ( 'NONE',  ( 1.000000000000000000, 6.505213034913026600E-017, 0.0000000000000000000 ) ) ;
#186 = LINE ( 'NONE', #187, #18 ) ;
#187 = CARTESIAN_POINT ( 'NONE',  ( -10.00000000000000000, 2.500000000000001300, -500.0000000000000000 ) ) ;
#188 = LINE ( 'NONE', #189, #22 ) ;
#189 = CARTESIAN_POINT ( 'NONE',  ( -10.00000000000000000, -2.500000000000001300, -500.0000000000000000 ) ) ;
#190 = DIRECTION ( 'NONE',  ( 1.000000000000000000, 6.505213034913026600E-017, 0.0000000000000000000 ) ) ;
#191 = DIRECTION ( 'NONE',  ( 0.0000000000000000000, -1.000000000000000000, 0.0000000000000000000 ) ) ;
#192 = LINE ( 'NONE', #193, #13 ) ;
#193 = CARTESIAN_POINT ( 'NONE',  ( 10.00000000000000000, -2.500000000000000000, 500.0000000000000000 ) ) ;
#194 = DIRECTION ( 'NONE',  ( -0.0000000000000000000, -0.0000000000000000000, -1.000000000000000000 ) ) ;
#195 = LINE ( 'NONE', #196, #33 ) ;
#196 = CARTESIAN_POINT ( 'NONE',  ( -10.00000000000000000, 2.500000000000001300, 500.0000000000000000 ) ) ;
#197 = DIRECTION ( 'NONE',  ( -0.0000000000000000000, -0.0000000000000000000, -1.000000000000000000 ) ) ;
#198 =( LENGTH_UNIT ( ) NAMED_UNIT ( * ) SI_UNIT ( .MILLI., .METRE. ) );
#199 =( NAMED_UNIT ( * ) PLANE_ANGLE_UNIT ( ) SI_UNIT ( $, .RADIAN. ) );
#200 =( NAMED_UNIT ( * ) SI_UNIT ( $, .STERADIAN. ) SOLID_ANGLE_UNIT ( ) );
#201 = APPLICATION_PROTOCOL_DEFINITION ( 'international standard', 'config_control_design', 1994, #132 ) ;
#202 = CARTESIAN_POINT ( 'NONE',  ( 0.0000000000000000000, 0.0000000000000000000, 0.0000000000000000000 ) ) ;
#203 = DIRECTION ( 'NONE',  ( 0.0000000000000000000, 0.0000000000000000000, 1.000000000000000000 ) ) ;
#204 = DIRECTION ( 'NONE',  ( 1.000000000000000000, 0.0000000000000000000, 0.0000000000000000000 ) ) ;
#205 = SHAPE_DEFINITION_REPRESENTATION ( #1, #170 ) ;
#206 = MECHANICAL_CONTEXT ( 'NONE', #132, 'mechanical' ) ;
#207 = PERSON_AND_ORGANIZATION ( #171, #26 ) ;
#208 = PERSON_AND_ORGANIZATION_ROLE ( 'design_owner' ) ;
#209 = APPLICATION_PROTOCOL_DEFINITION ( 'international standard', 'config_control_design', 1994, #133 ) ;
#210 = PERSON_AND_ORGANIZATION ( #171, #26 ) ;
#211 = APPROVAL_STATUS ( 'not_yet_approved' ) ;
#212 = APPROVAL_ROLE ( '' ) ;
#213 = DATE_AND_TIME ( #49, #145 ) ;
#214 = APPROVAL_DATE_TIME ( #213, #165 ) ;
#215 = PERSON_AND_ORGANIZATION ( #171, #26 ) ;
#216 = PERSON_AND_ORGANIZATION_ROLE ( 'creator' ) ;
#217 = DATE_AND_TIME ( #16, #143 ) ;
#218 = DATE_TIME_ROLE ( 'creation_date' ) ;
#219 = PERSON_AND_ORGANIZATION ( #171, #26 ) ;
#220 = APPROVAL_STATUS ( 'not_yet_approved' ) ;
#221 = APPROVAL_ROLE ( '' ) ;
#222 = DATE_AND_TIME ( #30, #148 ) ;
#223 = APPROVAL_DATE_TIME ( #222, #147 ) ;
#224 = PERSON_AND_ORGANIZATION ( #171, #26 ) ;
#225 = PERSON_AND_ORGANIZATION_ROLE ( 'creator' ) ;
#226 = PERSON_AND_ORGANIZATION ( #171, #26 ) ;
#227 = PERSON_AND_ORGANIZATION_ROLE ( 'design_supplier' ) ;
#228 = SECURITY_CLASSIFICATION_LEVEL ( 'unclassified' ) ;
#229 = PERSON_AND_ORGANIZATION ( #171, #26 ) ;
#230 = PERSON_AND_ORGANIZATION_ROLE ( 'classification_officer' ) ;
#231 = DATE_AND_TIME ( #34, #137 ) ;
#232 = DATE_TIME_ROLE ( 'classification_date' ) ;
#233 = PERSON_AND_ORGANIZATION ( #171, #26 ) ;
#234 = APPROVAL_STATUS ( 'not_yet_approved' ) ;
#235 = APPROVAL_ROLE ( '' ) ;
#236 = DATE_AND_TIME ( #11, #134 ) ;
#237 = APPROVAL_DATE_TIME ( #236, #135 ) ;
ENDSEC;
END-ISO-10303-21;
