ISO-10303-21;
HEADER;
FILE_DESCRIPTION (( 'STEP AP203' ),
    '1' );
FILE_NAME ('sone3D.STEP',
    '2013-08-09T06:35:51',
    ( '' ),
    ( '' ),
    'SwSTEP 2.0',
    'SolidWorks 2012',
    '' );
FILE_SCHEMA (( 'CONFIG_CONTROL_DESIGN' ));
ENDSEC;

DATA;
#1 = PERSON ( 'UNSPECIFIED', 'UNSPECIFIED', 'UNSPECIFIED', ('UNSPECIFIED'), ('UNSPECIFIED'), ('UNSPECIFIED') ) ;
#2 = ADVANCED_BREP_SHAPE_REPRESENTATION ( 'sone3D', ( #4, #27 ), #53 ) ;
#3 = UNCERTAINTY_MEASURE_WITH_UNIT (LENGTH_MEASURE( 1.000000000000000100E-005 ), #198, 'distance_accuracy_value', 'NONE');
#4 = MANIFOLD_SOLID_BREP ( 'ÎÞ½ - µoµ1', #51 ) ;
#5 = DESIGN_CONTEXT ( 'detailed design', #136, 'design' ) ;
#6 = PRODUCT_DEFINITION_SHAPE ( 'NONE', 'NONE',  #171 ) ;
#7 = FACE_OUTER_BOUND ( 'NONE', #114, .T. ) ;
#8 = CALENDAR_DATE ( 2013, 9, 8 ) ;
#9 = CALENDAR_DATE ( 2013, 9, 8 ) ;
#10 = AXIS2_PLACEMENT_3D ( 'NONE', #72, #71, #70 ) ;
#11 = ORGANIZATION ( 'UNSPECIFIED', 'UNSPECIFIED', '' ) ;
#12 = CC_DESIGN_SECURITY_CLASSIFICATION ( #35, ( #29 ) ) ;
#13 = CALENDAR_DATE ( 2013, 9, 8 ) ;
#14 = VECTOR ( 'NONE', #181, 1000.000000000000000 ) ;
#15 = APPROVAL_PERSON_ORGANIZATION ( #210, #159, #212 ) ;
#16 = VECTOR ( 'NONE', #191, 1000.000000000000000 ) ;
#17 = COORDINATED_UNIVERSAL_TIME_OFFSET ( 9, 0, .AHEAD. ) ;
#18 = VECTOR ( 'NONE', #194, 1000.000000000000000 ) ;
#19 = AXIS2_PLACEMENT_3D ( 'NONE', #62, #77, #59 ) ;
#20 = FACE_OUTER_BOUND ( 'NONE', #112, .T. ) ;
#21 = VECTOR ( 'NONE', #175, 1000.000000000000000 ) ;
#22 = VECTOR ( 'NONE', #57, 1000.000000000000000 ) ;
#23 = VECTOR ( 'NONE', #54, 1000.000000000000000 ) ;
#24 = VECTOR ( 'NONE', #197, 1000.000000000000000 ) ;
#25 = VECTOR ( 'NONE', #186, 1000.000000000000000 ) ;
#26 = COORDINATED_UNIVERSAL_TIME_OFFSET ( 9, 0, .AHEAD. ) ;
#27 = AXIS2_PLACEMENT_3D ( 'NONE', #202, #203, #204 ) ;
#28 = CC_DESIGN_APPROVAL ( #159, ( #171 ) ) ;
#29 = PRODUCT_DEFINITION_FORMATION_WITH_SPECIFIED_SOURCE ( 'ANY', '', #173, .NOT_KNOWN. ) ;
#30 = CALENDAR_DATE ( 2013, 9, 8 ) ;
#31 = AXIS2_PLACEMENT_3D ( 'NONE', #127, #126, #80 ) ;
#32 = COORDINATED_UNIVERSAL_TIME_OFFSET ( 9, 0, .AHEAD. ) ;
#33 = VECTOR ( 'NONE', #64, 1000.000000000000000 ) ;
#34 = FACE_OUTER_BOUND ( 'NONE', #113, .T. ) ;
#35 = SECURITY_CLASSIFICATION ( '', '', #228 ) ;
#36 = FACE_OUTER_BOUND ( 'NONE', #110, .T. ) ;
#37 = FACE_OUTER_BOUND ( 'NONE', #115, .T. ) ;
#38 = VECTOR ( 'NONE', #183, 1000.000000000000000 ) ;
#39 = COORDINATED_UNIVERSAL_TIME_OFFSET ( 9, 0, .AHEAD. ) ;
#40 = APPROVAL_PERSON_ORGANIZATION ( #219, #149, #221 ) ;
#41 = AXIS2_PLACEMENT_3D ( 'NONE', #122, #123, #125 ) ;
#42 = VECTOR ( 'NONE', #78, 1000.000000000000000 ) ;
#43 = FACE_OUTER_BOUND ( 'NONE', #111, .T. ) ;
#44 = VECTOR ( 'NONE', #73, 1000.000000000000000 ) ;
#45 = CC_DESIGN_APPROVAL ( #139, ( #35 ) ) ;
#46 = AXIS2_PLACEMENT_3D ( 'NONE', #76, #74, #83 ) ;
#47 = AXIS2_PLACEMENT_3D ( 'NONE', #180, #179, #178 ) ;
#48 = COORDINATED_UNIVERSAL_TIME_OFFSET ( 9, 0, .AHEAD. ) ;
#49 = CALENDAR_DATE ( 2013, 9, 8 ) ;
#50 = APPROVAL_PERSON_ORGANIZATION ( #233, #139, #235 ) ;
#51 = CLOSED_SHELL ( 'NONE', ( #155, #165, #161, #154, #151, #152 ) ) ;
#52 = CC_DESIGN_APPROVAL ( #149, ( #29 ) ) ;
#53 =( GEOMETRIC_REPRESENTATION_CONTEXT ( 3 ) GLOBAL_UNCERTAINTY_ASSIGNED_CONTEXT ( ( #3 ) ) GLOBAL_UNIT_ASSIGNED_CONTEXT ( ( #198, #199, #200 ) ) REPRESENTATION_CONTEXT ( 'NONE', 'WORKASPACE' ) );
#54 = DIRECTION ( 'NONE',  ( -0.0000000000000000000, 1.000000000000000000, -0.0000000000000000000 ) ) ;
#55 = LINE ( 'NONE', #67, #42 ) ;
#56 = LINE ( 'NONE', #63, #22 ) ;
#57 = DIRECTION ( 'NONE',  ( -1.000000000000000000, 8.673617379884035500E-017, -0.0000000000000000000 ) ) ;
#58 = CARTESIAN_POINT ( 'NONE',  ( -7.500000000000000000, -2.500000000000001300, -500.0000000000000000 ) ) ;
#59 = DIRECTION ( 'NONE',  ( 0.0000000000000000000, 0.0000000000000000000, 1.000000000000000000 ) ) ;
#60 = PLANE ( 'NONE',  #19 ) ;
#61 = CARTESIAN_POINT ( 'NONE',  ( 7.500000000000000000, 2.500000000000000000, -500.0000000000000000 ) ) ;
#62 = CARTESIAN_POINT ( 'NONE',  ( 7.500000000000000000, 2.500000000000000000, 500.0000000000000000 ) ) ;
#63 = CARTESIAN_POINT ( 'NONE',  ( -7.500000000000000000, 2.500000000000001300, 500.0000000000000000 ) ) ;
#64 = DIRECTION ( 'NONE',  ( 1.000000000000000000, 8.673617379884035500E-017, 0.0000000000000000000 ) ) ;
#65 = PLANE ( 'NONE',  #47 ) ;
#66 = LINE ( 'NONE', #61, #23 ) ;
#67 = CARTESIAN_POINT ( 'NONE',  ( -7.500000000000000000, 2.500000000000001300, 500.0000000000000000 ) ) ;
#68 = CARTESIAN_POINT ( 'NONE',  ( 7.500000000000000000, -2.500000000000000000, -500.0000000000000000 ) ) ;
#69 = PLANE ( 'NONE',  #46 ) ;
#70 = DIRECTION ( 'NONE',  ( -0.0000000000000000000, 0.0000000000000000000, -1.000000000000000000 ) ) ;
#71 = DIRECTION ( 'NONE',  ( 1.000000000000000000, 0.0000000000000000000, -0.0000000000000000000 ) ) ;
#72 = CARTESIAN_POINT ( 'NONE',  ( -7.500000000000000000, 2.500000000000001300, 500.0000000000000000 ) ) ;
#73 = DIRECTION ( 'NONE',  ( 1.000000000000000000, 8.673617379884035500E-017, 0.0000000000000000000 ) ) ;
#74 = DIRECTION ( 'NONE',  ( -8.673617379884035500E-017, -1.000000000000000000, 0.0000000000000000000 ) ) ;
#75 = VERTEX_POINT ( 'NONE', #129 ) ;
#76 = CARTESIAN_POINT ( 'NONE',  ( -7.500000000000000000, 2.500000000000001300, 500.0000000000000000 ) ) ;
#77 = DIRECTION ( 'NONE',  ( -1.000000000000000000, 0.0000000000000000000, 0.0000000000000000000 ) ) ;
#78 = DIRECTION ( 'NONE',  ( 0.0000000000000000000, -1.000000000000000000, 0.0000000000000000000 ) ) ;
#79 = VERTEX_POINT ( 'NONE', #68 ) ;
#80 = DIRECTION ( 'NONE',  ( 1.000000000000000000, 0.0000000000000000000, 0.0000000000000000000 ) ) ;
#81 = LINE ( 'NONE', #58, #33 ) ;
#82 = CARTESIAN_POINT ( 'NONE',  ( -7.500000000000000000, -2.500000000000001300, 500.0000000000000000 ) ) ;
#83 = DIRECTION ( 'NONE',  ( 1.000000000000000000, -8.673617379884035500E-017, 0.0000000000000000000 ) ) ;
#84 = PLANE ( 'NONE',  #10 ) ;
#85 = LINE ( 'NONE', #82, #44 ) ;
#86 = ORIENTED_EDGE ( 'NONE', *, *, #170, .F. ) ;
#87 = ORIENTED_EDGE ( 'NONE', *, *, #156, .F. ) ;
#88 = ORIENTED_EDGE ( 'NONE', *, *, #164, .F. ) ;
#89 = ORIENTED_EDGE ( 'NONE', *, *, #163, .F. ) ;
#90 = ORIENTED_EDGE ( 'NONE', *, *, #162, .F. ) ;
#91 = ORIENTED_EDGE ( 'NONE', *, *, #169, .T. ) ;
#92 = ORIENTED_EDGE ( 'NONE', *, *, #153, .T. ) ;
#93 = ORIENTED_EDGE ( 'NONE', *, *, #157, .T. ) ;
#94 = ORIENTED_EDGE ( 'NONE', *, *, #166, .T. ) ;
#95 = ORIENTED_EDGE ( 'NONE', *, *, #158, .T. ) ;
#96 = ORIENTED_EDGE ( 'NONE', *, *, #167, .F. ) ;
#97 = ORIENTED_EDGE ( 'NONE', *, *, #158, .F. ) ;
#98 = ORIENTED_EDGE ( 'NONE', *, *, #164, .T. ) ;
#99 = ORIENTED_EDGE ( 'NONE', *, *, #169, .F. ) ;
#100 = ORIENTED_EDGE ( 'NONE', *, *, #166, .F. ) ;
#101 = ORIENTED_EDGE ( 'NONE', *, *, #170, .T. ) ;
#102 = ORIENTED_EDGE ( 'NONE', *, *, #162, .T. ) ;
#103 = ORIENTED_EDGE ( 'NONE', *, *, #168, .F. ) ;
#104 = ORIENTED_EDGE ( 'NONE', *, *, #156, .T. ) ;
#105 = ORIENTED_EDGE ( 'NONE', *, *, #168, .T. ) ;
#106 = ORIENTED_EDGE ( 'NONE', *, *, #153, .F. ) ;
#107 = ORIENTED_EDGE ( 'NONE', *, *, #157, .F. ) ;
#108 = ORIENTED_EDGE ( 'NONE', *, *, #167, .T. ) ;
#109 = ORIENTED_EDGE ( 'NONE', *, *, #163, .T. ) ;
#110 = EDGE_LOOP ( 'NONE', ( #102, #86, #106, #105 ) ) ;
#111 = EDGE_LOOP ( 'NONE', ( #104, #100, #99, #101 ) ) ;
#112 = EDGE_LOOP ( 'NONE', ( #109, #103, #107, #108 ) ) ;
#113 = EDGE_LOOP ( 'NONE', ( #98, #96, #97, #94 ) ) ;
#114 = EDGE_LOOP ( 'NONE', ( #93, #92, #91, #95 ) ) ;
#115 = EDGE_LOOP ( 'NONE', ( #89, #88, #87, #90 ) ) ;
#116 = VERTEX_POINT ( 'NONE', #131 ) ;
#117 = VERTEX_POINT ( 'NONE', #132 ) ;
#118 = VERTEX_POINT ( 'NONE', #133 ) ;
#119 = VERTEX_POINT ( 'NONE', #134 ) ;
#120 = VERTEX_POINT ( 'NONE', #135 ) ;
#121 = CARTESIAN_POINT ( 'NONE',  ( 7.500000000000000000, -2.500000000000000000, 500.0000000000000000 ) ) ;
#122 = CARTESIAN_POINT ( 'NONE',  ( 0.0000000000000000000, 0.0000000000000000000, 500.0000000000000000 ) ) ;
#123 = DIRECTION ( 'NONE',  ( -0.0000000000000000000, 0.0000000000000000000, 1.000000000000000000 ) ) ;
#124 = PLANE ( 'NONE',  #31 ) ;
#125 = DIRECTION ( 'NONE',  ( 1.000000000000000000, 0.0000000000000000000, 0.0000000000000000000 ) ) ;
#126 = DIRECTION ( 'NONE',  ( -0.0000000000000000000, 0.0000000000000000000, 1.000000000000000000 ) ) ;
#127 = CARTESIAN_POINT ( 'NONE',  ( 0.0000000000000000000, 0.0000000000000000000, -500.0000000000000000 ) ) ;
#128 = VERTEX_POINT ( 'NONE', #121 ) ;
#129 = CARTESIAN_POINT ( 'NONE',  ( -7.500000000000000000, -2.500000000000001300, 500.0000000000000000 ) ) ;
#130 = PLANE ( 'NONE',  #41 ) ;
#131 = CARTESIAN_POINT ( 'NONE',  ( 7.500000000000000000, 2.500000000000000000, 500.0000000000000000 ) ) ;
#132 = CARTESIAN_POINT ( 'NONE',  ( -7.500000000000000000, 2.500000000000001300, -500.0000000000000000 ) ) ;
#133 = CARTESIAN_POINT ( 'NONE',  ( -7.500000000000000000, 2.500000000000001300, 500.0000000000000000 ) ) ;
#134 = CARTESIAN_POINT ( 'NONE',  ( -7.500000000000000000, -2.500000000000001300, -500.0000000000000000 ) ) ;
#135 = CARTESIAN_POINT ( 'NONE',  ( 7.500000000000000000, 2.500000000000000000, -500.0000000000000000 ) ) ;
#136 = APPLICATION_CONTEXT ( 'configuration controlled 3d designs of mechanical parts and assemblies' ) ;
#137 = APPLICATION_CONTEXT ( 'configuration controlled 3d designs of mechanical parts and assemblies' ) ;
#138 = LOCAL_TIME ( 15, 35, 51.00000000000000000, #17 ) ;
#139 = APPROVAL ( #234, 'UNSPECIFIED' ) ;
#140 = CC_DESIGN_DATE_AND_TIME_ASSIGNMENT ( #231, #232, ( #35 ) ) ;
#141 = LOCAL_TIME ( 15, 35, 51.00000000000000000, #26 ) ;
#142 = CC_DESIGN_PERSON_AND_ORGANIZATION_ASSIGNMENT ( #229, #230, ( #35 ) ) ;
#143 = CC_DESIGN_PERSON_AND_ORGANIZATION_ASSIGNMENT ( #226, #227, ( #29 ) ) ;
#144 = CC_DESIGN_PERSON_AND_ORGANIZATION_ASSIGNMENT ( #224, #225, ( #29 ) ) ;
#145 = CC_DESIGN_PERSON_AND_ORGANIZATION_ASSIGNMENT ( #215, #216, ( #171 ) ) ;
#146 = LOCAL_TIME ( 15, 35, 51.00000000000000000, #48 ) ;
#147 = LOCAL_TIME ( 15, 35, 51.00000000000000000, #32 ) ;
#148 = CC_DESIGN_DATE_AND_TIME_ASSIGNMENT ( #217, #218, ( #171 ) ) ;
#149 = APPROVAL ( #220, 'UNSPECIFIED' ) ;
#150 = LOCAL_TIME ( 15, 35, 51.00000000000000000, #39 ) ;
#151 = ADVANCED_FACE ( 'NONE', ( #7 ), #130, .T. ) ;
#152 = ADVANCED_FACE ( 'NONE', ( #37 ), #124, .F. ) ;
#153 = EDGE_CURVE ( 'NONE', #75, #128, #85, .T. ) ;
#154 = ADVANCED_FACE ( 'NONE', ( #34 ), #69, .F. ) ;
#155 = ADVANCED_FACE ( 'NONE', ( #20 ), #84, .F. ) ;
#156 = EDGE_CURVE ( 'NONE', #79, #120, #66, .T. ) ;
#157 = EDGE_CURVE ( 'NONE', #118, #75, #55, .T. ) ;
#158 = EDGE_CURVE ( 'NONE', #116, #118, #56, .T. ) ;
#159 = APPROVAL ( #211, 'UNSPECIFIED' ) ;
#160 = CC_DESIGN_PERSON_AND_ORGANIZATION_ASSIGNMENT ( #207, #208, ( #173 ) ) ;
#161 = ADVANCED_FACE ( 'NONE', ( #43 ), #60, .F. ) ;
#162 = EDGE_CURVE ( 'NONE', #119, #79, #81, .T. ) ;
#163 = EDGE_CURVE ( 'NONE', #117, #119, #189, .T. ) ;
#164 = EDGE_CURVE ( 'NONE', #120, #117, #182, .T. ) ;
#165 = ADVANCED_FACE ( 'NONE', ( #36 ), #65, .F. ) ;
#166 = EDGE_CURVE ( 'NONE', #116, #120, #177, .T. ) ;
#167 = EDGE_CURVE ( 'NONE', #118, #117, #174, .T. ) ;
#168 = EDGE_CURVE ( 'NONE', #75, #119, #187, .T. ) ;
#169 = EDGE_CURVE ( 'NONE', #128, #116, #192, .T. ) ;
#170 = EDGE_CURVE ( 'NONE', #128, #79, #195, .T. ) ;
#171 = PRODUCT_DEFINITION ( 'UNKNOWN', '', #29, #5 ) ;
#172 = PRODUCT_RELATED_PRODUCT_CATEGORY ( 'detail', '', ( #173 ) ) ;
#173 = PRODUCT ( 'sone3D', 'sone3D', '', ( #206 ) ) ;
#174 = LINE ( 'NONE', #185, #25 ) ;
#175 = DIRECTION ( 'NONE',  ( -0.0000000000000000000, -0.0000000000000000000, -1.000000000000000000 ) ) ;
#176 = CARTESIAN_POINT ( 'NONE',  ( 7.500000000000000000, 2.500000000000000000, 500.0000000000000000 ) ) ;
#177 = LINE ( 'NONE', #176, #21 ) ;
#178 = DIRECTION ( 'NONE',  ( -1.000000000000000000, -8.673617379884035500E-017, 0.0000000000000000000 ) ) ;
#179 = DIRECTION ( 'NONE',  ( -8.673617379884035500E-017, 1.000000000000000000, 0.0000000000000000000 ) ) ;
#180 = CARTESIAN_POINT ( 'NONE',  ( -7.500000000000000000, -2.500000000000001300, 500.0000000000000000 ) ) ;
#181 = DIRECTION ( 'NONE',  ( -1.000000000000000000, 8.673617379884035500E-017, -0.0000000000000000000 ) ) ;
#182 = LINE ( 'NONE', #184, #14 ) ;
#183 = DIRECTION ( 'NONE',  ( 0.0000000000000000000, -1.000000000000000000, 0.0000000000000000000 ) ) ;
#184 = CARTESIAN_POINT ( 'NONE',  ( -7.500000000000000000, 2.500000000000001300, -500.0000000000000000 ) ) ;
#185 = CARTESIAN_POINT ( 'NONE',  ( -7.500000000000000000, 2.500000000000001300, 500.0000000000000000 ) ) ;
#186 = DIRECTION ( 'NONE',  ( -0.0000000000000000000, -0.0000000000000000000, -1.000000000000000000 ) ) ;
#187 = LINE ( 'NONE', #188, #16 ) ;
#188 = CARTESIAN_POINT ( 'NONE',  ( -7.500000000000000000, -2.500000000000001300, 500.0000000000000000 ) ) ;
#189 = LINE ( 'NONE', #190, #38 ) ;
#190 = CARTESIAN_POINT ( 'NONE',  ( -7.500000000000000000, 2.500000000000001300, -500.0000000000000000 ) ) ;
#191 = DIRECTION ( 'NONE',  ( -0.0000000000000000000, -0.0000000000000000000, -1.000000000000000000 ) ) ;
#192 = LINE ( 'NONE', #193, #18 ) ;
#193 = CARTESIAN_POINT ( 'NONE',  ( 7.500000000000000000, 2.500000000000000000, 500.0000000000000000 ) ) ;
#194 = DIRECTION ( 'NONE',  ( -0.0000000000000000000, 1.000000000000000000, -0.0000000000000000000 ) ) ;
#195 = LINE ( 'NONE', #196, #24 ) ;
#196 = CARTESIAN_POINT ( 'NONE',  ( 7.500000000000000000, -2.500000000000000000, 500.0000000000000000 ) ) ;
#197 = DIRECTION ( 'NONE',  ( -0.0000000000000000000, -0.0000000000000000000, -1.000000000000000000 ) ) ;
#198 =( LENGTH_UNIT ( ) NAMED_UNIT ( * ) SI_UNIT ( .MILLI., .METRE. ) );
#199 =( NAMED_UNIT ( * ) PLANE_ANGLE_UNIT ( ) SI_UNIT ( $, .RADIAN. ) );
#200 =( NAMED_UNIT ( * ) SI_UNIT ( $, .STERADIAN. ) SOLID_ANGLE_UNIT ( ) );
#201 = APPLICATION_PROTOCOL_DEFINITION ( 'international standard', 'config_control_design', 1994, #137 ) ;
#202 = CARTESIAN_POINT ( 'NONE',  ( 0.0000000000000000000, 0.0000000000000000000, 0.0000000000000000000 ) ) ;
#203 = DIRECTION ( 'NONE',  ( 0.0000000000000000000, 0.0000000000000000000, 1.000000000000000000 ) ) ;
#204 = DIRECTION ( 'NONE',  ( 1.000000000000000000, 0.0000000000000000000, 0.0000000000000000000 ) ) ;
#205 = SHAPE_DEFINITION_REPRESENTATION ( #6, #2 ) ;
#206 = MECHANICAL_CONTEXT ( 'NONE', #137, 'mechanical' ) ;
#207 = PERSON_AND_ORGANIZATION ( #1, #11 ) ;
#208 = PERSON_AND_ORGANIZATION_ROLE ( 'design_owner' ) ;
#209 = APPLICATION_PROTOCOL_DEFINITION ( 'international standard', 'config_control_design', 1994, #136 ) ;
#210 = PERSON_AND_ORGANIZATION ( #1, #11 ) ;
#211 = APPROVAL_STATUS ( 'not_yet_approved' ) ;
#212 = APPROVAL_ROLE ( '' ) ;
#213 = DATE_AND_TIME ( #13, #147 ) ;
#214 = APPROVAL_DATE_TIME ( #213, #159 ) ;
#215 = PERSON_AND_ORGANIZATION ( #1, #11 ) ;
#216 = PERSON_AND_ORGANIZATION_ROLE ( 'creator' ) ;
#217 = DATE_AND_TIME ( #9, #146 ) ;
#218 = DATE_TIME_ROLE ( 'creation_date' ) ;
#219 = PERSON_AND_ORGANIZATION ( #1, #11 ) ;
#220 = APPROVAL_STATUS ( 'not_yet_approved' ) ;
#221 = APPROVAL_ROLE ( '' ) ;
#222 = DATE_AND_TIME ( #49, #150 ) ;
#223 = APPROVAL_DATE_TIME ( #222, #149 ) ;
#224 = PERSON_AND_ORGANIZATION ( #1, #11 ) ;
#225 = PERSON_AND_ORGANIZATION_ROLE ( 'creator' ) ;
#226 = PERSON_AND_ORGANIZATION ( #1, #11 ) ;
#227 = PERSON_AND_ORGANIZATION_ROLE ( 'design_supplier' ) ;
#228 = SECURITY_CLASSIFICATION_LEVEL ( 'unclassified' ) ;
#229 = PERSON_AND_ORGANIZATION ( #1, #11 ) ;
#230 = PERSON_AND_ORGANIZATION_ROLE ( 'classification_officer' ) ;
#231 = DATE_AND_TIME ( #30, #141 ) ;
#232 = DATE_TIME_ROLE ( 'classification_date' ) ;
#233 = PERSON_AND_ORGANIZATION ( #1, #11 ) ;
#234 = APPROVAL_STATUS ( 'not_yet_approved' ) ;
#235 = APPROVAL_ROLE ( '' ) ;
#236 = DATE_AND_TIME ( #8, #138 ) ;
#237 = APPROVAL_DATE_TIME ( #236, #139 ) ;
ENDSEC;
END-ISO-10303-21;
