ISO-10303-21;
HEADER;
FILE_DESCRIPTION (( 'STEP AP203' ),
    '1' );
FILE_NAME ('sone3D.STEP',
    '2013-08-09T06:35:23',
    ( '' ),
    ( '' ),
    'SwSTEP 2.0',
    'SolidWorks 2012',
    '' );
FILE_SCHEMA (( 'CONFIG_CONTROL_DESIGN' ));
ENDSEC;

DATA;
#1 = UNCERTAINTY_MEASURE_WITH_UNIT (LENGTH_MEASURE( 1.000000000000000100E-005 ), #198, 'distance_accuracy_value', 'NONE');
#2 = ADVANCED_BREP_SHAPE_REPRESENTATION ( 'sone3D', ( #5, #13 ), #53 ) ;
#3 = PERSON ( 'UNSPECIFIED', 'UNSPECIFIED', 'UNSPECIFIED', ('UNSPECIFIED'), ('UNSPECIFIED'), ('UNSPECIFIED') ) ;
#4 = PRODUCT_DEFINITION_SHAPE ( 'NONE', 'NONE',  #169 ) ;
#5 = MANIFOLD_SOLID_BREP ( 'ÎÞ½ - µoµ1', #28 ) ;
#6 = DESIGN_CONTEXT ( 'detailed design', #173, 'design' ) ;
#7 = PRODUCT_DEFINITION_FORMATION_WITH_SPECIFIED_SOURCE ( 'ANY', '', #172, .NOT_KNOWN. ) ;
#8 = VECTOR ( 'NONE', #194, 1000.000000000000000 ) ;
#9 = FACE_OUTER_BOUND ( 'NONE', #110, .T. ) ;
#10 = AXIS2_PLACEMENT_3D ( 'NONE', #82, #85, #83 ) ;
#11 = VECTOR ( 'NONE', #55, 1000.000000000000000 ) ;
#12 = AXIS2_PLACEMENT_3D ( 'NONE', #71, #70, #67 ) ;
#13 = AXIS2_PLACEMENT_3D ( 'NONE', #202, #203, #204 ) ;
#14 = CALENDAR_DATE ( 2013, 9, 8 ) ;
#15 = AXIS2_PLACEMENT_3D ( 'NONE', #62, #58, #60 ) ;
#16 = VECTOR ( 'NONE', #125, 1000.000000000000000 ) ;
#17 = APPROVAL_PERSON_ORGANIZATION ( #233, #138, #235 ) ;
#18 = CALENDAR_DATE ( 2013, 9, 8 ) ;
#19 = VECTOR ( 'NONE', #191, 1000.000000000000000 ) ;
#20 = CC_DESIGN_APPROVAL ( #149, ( #7 ) ) ;
#21 = COORDINATED_UNIVERSAL_TIME_OFFSET ( 9, 0, .AHEAD. ) ;
#22 = VECTOR ( 'NONE', #181, 1000.000000000000000 ) ;
#23 = FACE_OUTER_BOUND ( 'NONE', #115, .T. ) ;
#24 = VECTOR ( 'NONE', #197, 1000.000000000000000 ) ;
#25 = VECTOR ( 'NONE', #63, 1000.000000000000000 ) ;
#26 = FACE_OUTER_BOUND ( 'NONE', #114, .T. ) ;
#27 = CC_DESIGN_APPROVAL ( #168, ( #169 ) ) ;
#28 = CLOSED_SHELL ( 'NONE', ( #155, #152, #163, #156, #159, #154 ) ) ;
#29 = APPROVAL_PERSON_ORGANIZATION ( #210, #168, #212 ) ;
#30 = VECTOR ( 'NONE', #76, 1000.000000000000000 ) ;
#31 = COORDINATED_UNIVERSAL_TIME_OFFSET ( 9, 0, .AHEAD. ) ;
#32 = CC_DESIGN_SECURITY_CLASSIFICATION ( #39, ( #7 ) ) ;
#33 = FACE_OUTER_BOUND ( 'NONE', #113, .T. ) ;
#34 = COORDINATED_UNIVERSAL_TIME_OFFSET ( 9, 0, .AHEAD. ) ;
#35 = AXIS2_PLACEMENT_3D ( 'NONE', #56, #64, #54 ) ;
#36 = CALENDAR_DATE ( 2013, 9, 8 ) ;
#37 = VECTOR ( 'NONE', #184, 1000.000000000000000 ) ;
#38 = AXIS2_PLACEMENT_3D ( 'NONE', #180, #179, #178 ) ;
#39 = SECURITY_CLASSIFICATION ( '', '', #228 ) ;
#40 = ORGANIZATION ( 'UNSPECIFIED', 'UNSPECIFIED', '' ) ;
#41 = COORDINATED_UNIVERSAL_TIME_OFFSET ( 9, 0, .AHEAD. ) ;
#42 = VECTOR ( 'NONE', #175, 1000.000000000000000 ) ;
#43 = APPROVAL_PERSON_ORGANIZATION ( #219, #149, #221 ) ;
#44 = FACE_OUTER_BOUND ( 'NONE', #112, .T. ) ;
#45 = CC_DESIGN_APPROVAL ( #138, ( #39 ) ) ;
#46 = FACE_OUTER_BOUND ( 'NONE', #111, .T. ) ;
#47 = COORDINATED_UNIVERSAL_TIME_OFFSET ( 9, 0, .AHEAD. ) ;
#48 = VECTOR ( 'NONE', #127, 1000.000000000000000 ) ;
#49 = CALENDAR_DATE ( 2013, 9, 8 ) ;
#50 = CALENDAR_DATE ( 2013, 9, 8 ) ;
#51 = AXIS2_PLACEMENT_3D ( 'NONE', #78, #84, #75 ) ;
#52 = VECTOR ( 'NONE', #190, 1000.000000000000000 ) ;
#53 =( GEOMETRIC_REPRESENTATION_CONTEXT ( 3 ) GLOBAL_UNCERTAINTY_ASSIGNED_CONTEXT ( ( #1 ) ) GLOBAL_UNIT_ASSIGNED_CONTEXT ( ( #198, #199, #200 ) ) REPRESENTATION_CONTEXT ( 'NONE', 'WORKASPACE' ) );
#54 = DIRECTION ( 'NONE',  ( 1.000000000000000000, -8.673617379884034200E-017, 0.0000000000000000000 ) ) ;
#55 = DIRECTION ( 'NONE',  ( -1.000000000000000000, 8.673617379884034200E-017, -0.0000000000000000000 ) ) ;
#56 = CARTESIAN_POINT ( 'NONE',  ( -5.000000000000000900, 2.500000000000000900, 500.0000000000000000 ) ) ;
#57 = CARTESIAN_POINT ( 'NONE',  ( 5.000000000000000900, 2.500000000000000000, 500.0000000000000000 ) ) ;
#58 = DIRECTION ( 'NONE',  ( -0.0000000000000000000, 0.0000000000000000000, 1.000000000000000000 ) ) ;
#59 = PLANE ( 'NONE',  #15 ) ;
#60 = DIRECTION ( 'NONE',  ( 1.000000000000000000, 0.0000000000000000000, 0.0000000000000000000 ) ) ;
#61 = LINE ( 'NONE', #66, #19 ) ;
#62 = CARTESIAN_POINT ( 'NONE',  ( 0.0000000000000000000, 0.0000000000000000000, 500.0000000000000000 ) ) ;
#63 = DIRECTION ( 'NONE',  ( -0.0000000000000000000, -0.0000000000000000000, -1.000000000000000000 ) ) ;
#64 = DIRECTION ( 'NONE',  ( -8.673617379884034200E-017, -1.000000000000000000, 0.0000000000000000000 ) ) ;
#65 = CARTESIAN_POINT ( 'NONE',  ( -5.000000000000000900, 2.500000000000000900, -500.0000000000000000 ) ) ;
#66 = CARTESIAN_POINT ( 'NONE',  ( -5.000000000000000900, -2.500000000000000900, -500.0000000000000000 ) ) ;
#67 = DIRECTION ( 'NONE',  ( -0.0000000000000000000, 0.0000000000000000000, -1.000000000000000000 ) ) ;
#68 = CARTESIAN_POINT ( 'NONE',  ( 5.000000000000000900, 2.500000000000000000, -500.0000000000000000 ) ) ;
#69 = CARTESIAN_POINT ( 'NONE',  ( 5.000000000000000900, 2.500000000000000000, -500.0000000000000000 ) ) ;
#70 = DIRECTION ( 'NONE',  ( 1.000000000000000000, 0.0000000000000000000, -0.0000000000000000000 ) ) ;
#71 = CARTESIAN_POINT ( 'NONE',  ( -5.000000000000000900, 2.500000000000000900, 500.0000000000000000 ) ) ;
#72 = PLANE ( 'NONE',  #12 ) ;
#73 = LINE ( 'NONE', #69, #30 ) ;
#74 = PLANE ( 'NONE',  #51 ) ;
#75 = DIRECTION ( 'NONE',  ( 1.000000000000000000, 0.0000000000000000000, 0.0000000000000000000 ) ) ;
#76 = DIRECTION ( 'NONE',  ( -0.0000000000000000000, 1.000000000000000000, -0.0000000000000000000 ) ) ;
#77 = LINE ( 'NONE', #65, #11 ) ;
#78 = CARTESIAN_POINT ( 'NONE',  ( 0.0000000000000000000, 0.0000000000000000000, -500.0000000000000000 ) ) ;
#79 = VERTEX_POINT ( 'NONE', #131 ) ;
#80 = PLANE ( 'NONE',  #35 ) ;
#81 = CARTESIAN_POINT ( 'NONE',  ( -5.000000000000000900, 2.500000000000000900, 500.0000000000000000 ) ) ;
#82 = CARTESIAN_POINT ( 'NONE',  ( -5.000000000000000900, -2.500000000000000900, 500.0000000000000000 ) ) ;
#83 = DIRECTION ( 'NONE',  ( -1.000000000000000000, -8.673617379884034200E-017, 0.0000000000000000000 ) ) ;
#84 = DIRECTION ( 'NONE',  ( -0.0000000000000000000, 0.0000000000000000000, 1.000000000000000000 ) ) ;
#85 = DIRECTION ( 'NONE',  ( -8.673617379884034200E-017, 1.000000000000000000, 0.0000000000000000000 ) ) ;
#86 = ORIENTED_EDGE ( 'NONE', *, *, #167, .T. ) ;
#87 = ORIENTED_EDGE ( 'NONE', *, *, #166, .F. ) ;
#88 = ORIENTED_EDGE ( 'NONE', *, *, #145, .F. ) ;
#89 = ORIENTED_EDGE ( 'NONE', *, *, #153, .F. ) ;
#90 = ORIENTED_EDGE ( 'NONE', *, *, #158, .F. ) ;
#91 = ORIENTED_EDGE ( 'NONE', *, *, #165, .F. ) ;
#92 = ORIENTED_EDGE ( 'NONE', *, *, #160, .F. ) ;
#93 = ORIENTED_EDGE ( 'NONE', *, *, #162, .T. ) ;
#94 = ORIENTED_EDGE ( 'NONE', *, *, #164, .T. ) ;
#95 = ORIENTED_EDGE ( 'NONE', *, *, #145, .T. ) ;
#96 = ORIENTED_EDGE ( 'NONE', *, *, #157, .T. ) ;
#97 = ORIENTED_EDGE ( 'NONE', *, *, #161, .T. ) ;
#98 = ORIENTED_EDGE ( 'NONE', *, *, #167, .F. ) ;
#99 = ORIENTED_EDGE ( 'NONE', *, *, #161, .F. ) ;
#100 = ORIENTED_EDGE ( 'NONE', *, *, #158, .T. ) ;
#101 = ORIENTED_EDGE ( 'NONE', *, *, #162, .F. ) ;
#102 = ORIENTED_EDGE ( 'NONE', *, *, #157, .F. ) ;
#103 = ORIENTED_EDGE ( 'NONE', *, *, #166, .T. ) ;
#104 = ORIENTED_EDGE ( 'NONE', *, *, #160, .T. ) ;
#105 = ORIENTED_EDGE ( 'NONE', *, *, #151, .F. ) ;
#106 = ORIENTED_EDGE ( 'NONE', *, *, #165, .T. ) ;
#107 = ORIENTED_EDGE ( 'NONE', *, *, #153, .T. ) ;
#108 = ORIENTED_EDGE ( 'NONE', *, *, #151, .T. ) ;
#109 = ORIENTED_EDGE ( 'NONE', *, *, #164, .F. ) ;
#110 = EDGE_LOOP ( 'NONE', ( #104, #87, #109, #108 ) ) ;
#111 = EDGE_LOOP ( 'NONE', ( #107, #102, #101, #103 ) ) ;
#112 = EDGE_LOOP ( 'NONE', ( #106, #105, #88, #86 ) ) ;
#113 = EDGE_LOOP ( 'NONE', ( #100, #98, #99, #96 ) ) ;
#114 = EDGE_LOOP ( 'NONE', ( #95, #94, #93, #97 ) ) ;
#115 = EDGE_LOOP ( 'NONE', ( #91, #90, #89, #92 ) ) ;
#116 = VERTEX_POINT ( 'NONE', #68 ) ;
#117 = VERTEX_POINT ( 'NONE', #81 ) ;
#118 = VERTEX_POINT ( 'NONE', #133 ) ;
#119 = VERTEX_POINT ( 'NONE', #134 ) ;
#120 = VERTEX_POINT ( 'NONE', #135 ) ;
#121 = LINE ( 'NONE', #57, #25 ) ;
#122 = VERTEX_POINT ( 'NONE', #136 ) ;
#123 = CARTESIAN_POINT ( 'NONE',  ( 5.000000000000000900, -2.500000000000000000, 500.0000000000000000 ) ) ;
#124 = LINE ( 'NONE', #128, #48 ) ;
#125 = DIRECTION ( 'NONE',  ( 0.0000000000000000000, -1.000000000000000000, 0.0000000000000000000 ) ) ;
#126 = PLANE ( 'NONE',  #10 ) ;
#127 = DIRECTION ( 'NONE',  ( -0.0000000000000000000, -0.0000000000000000000, -1.000000000000000000 ) ) ;
#128 = CARTESIAN_POINT ( 'NONE',  ( -5.000000000000000900, -2.500000000000000900, 500.0000000000000000 ) ) ;
#129 = CARTESIAN_POINT ( 'NONE',  ( -5.000000000000000900, 2.500000000000000900, 500.0000000000000000 ) ) ;
#130 = VERTEX_POINT ( 'NONE', #123 ) ;
#131 = CARTESIAN_POINT ( 'NONE',  ( -5.000000000000000900, -2.500000000000000900, 500.0000000000000000 ) ) ;
#132 = LINE ( 'NONE', #129, #16 ) ;
#133 = CARTESIAN_POINT ( 'NONE',  ( 5.000000000000000900, -2.500000000000000000, -500.0000000000000000 ) ) ;
#134 = CARTESIAN_POINT ( 'NONE',  ( -5.000000000000000900, 2.500000000000000900, -500.0000000000000000 ) ) ;
#135 = CARTESIAN_POINT ( 'NONE',  ( 5.000000000000000900, 2.500000000000000000, 500.0000000000000000 ) ) ;
#136 = CARTESIAN_POINT ( 'NONE',  ( -5.000000000000000900, -2.500000000000000900, -500.0000000000000000 ) ) ;
#137 = LOCAL_TIME ( 15, 35, 23.00000000000000000, #47 ) ;
#138 = APPROVAL ( #234, 'UNSPECIFIED' ) ;
#139 = CC_DESIGN_DATE_AND_TIME_ASSIGNMENT ( #231, #232, ( #39 ) ) ;
#140 = LOCAL_TIME ( 15, 35, 23.00000000000000000, #34 ) ;
#141 = CC_DESIGN_PERSON_AND_ORGANIZATION_ASSIGNMENT ( #229, #230, ( #39 ) ) ;
#142 = CC_DESIGN_PERSON_AND_ORGANIZATION_ASSIGNMENT ( #226, #227, ( #7 ) ) ;
#143 = CC_DESIGN_PERSON_AND_ORGANIZATION_ASSIGNMENT ( #224, #225, ( #7 ) ) ;
#144 = CC_DESIGN_PERSON_AND_ORGANIZATION_ASSIGNMENT ( #215, #216, ( #169 ) ) ;
#145 = EDGE_CURVE ( 'NONE', #117, #79, #132, .T. ) ;
#146 = LOCAL_TIME ( 15, 35, 23.00000000000000000, #41 ) ;
#147 = LOCAL_TIME ( 15, 35, 23.00000000000000000, #21 ) ;
#148 = CC_DESIGN_DATE_AND_TIME_ASSIGNMENT ( #217, #218, ( #169 ) ) ;
#149 = APPROVAL ( #220, 'UNSPECIFIED' ) ;
#150 = LOCAL_TIME ( 15, 35, 23.00000000000000000, #31 ) ;
#151 = EDGE_CURVE ( 'NONE', #79, #122, #124, .T. ) ;
#152 = ADVANCED_FACE ( 'NONE', ( #9 ), #126, .F. ) ;
#153 = EDGE_CURVE ( 'NONE', #118, #116, #73, .T. ) ;
#154 = ADVANCED_FACE ( 'NONE', ( #23 ), #74, .F. ) ;
#155 = ADVANCED_FACE ( 'NONE', ( #44 ), #72, .F. ) ;
#156 = ADVANCED_FACE ( 'NONE', ( #33 ), #80, .F. ) ;
#157 = EDGE_CURVE ( 'NONE', #120, #116, #121, .T. ) ;
#158 = EDGE_CURVE ( 'NONE', #116, #119, #77, .T. ) ;
#159 = ADVANCED_FACE ( 'NONE', ( #26 ), #59, .T. ) ;
#160 = EDGE_CURVE ( 'NONE', #122, #118, #61, .T. ) ;
#161 = EDGE_CURVE ( 'NONE', #120, #117, #185, .T. ) ;
#162 = EDGE_CURVE ( 'NONE', #130, #120, #183, .T. ) ;
#163 = ADVANCED_FACE ( 'NONE', ( #46 ), #186, .F. ) ;
#164 = EDGE_CURVE ( 'NONE', #79, #130, #177, .T. ) ;
#165 = EDGE_CURVE ( 'NONE', #119, #122, #188, .T. ) ;
#166 = EDGE_CURVE ( 'NONE', #130, #118, #192, .T. ) ;
#167 = EDGE_CURVE ( 'NONE', #117, #119, #195, .T. ) ;
#168 = APPROVAL ( #211, 'UNSPECIFIED' ) ;
#169 = PRODUCT_DEFINITION ( 'UNKNOWN', '', #7, #6 ) ;
#170 = CC_DESIGN_PERSON_AND_ORGANIZATION_ASSIGNMENT ( #207, #208, ( #172 ) ) ;
#171 = PRODUCT_RELATED_PRODUCT_CATEGORY ( 'detail', '', ( #172 ) ) ;
#172 = PRODUCT ( 'sone3D', 'sone3D', '', ( #206 ) ) ;
#173 = APPLICATION_CONTEXT ( 'configuration controlled 3d designs of mechanical parts and assemblies' ) ;
#174 = APPLICATION_CONTEXT ( 'configuration controlled 3d designs of mechanical parts and assemblies' ) ;
#175 = DIRECTION ( 'NONE',  ( 1.000000000000000000, 8.673617379884034200E-017, 0.0000000000000000000 ) ) ;
#176 = CARTESIAN_POINT ( 'NONE',  ( -5.000000000000000900, -2.500000000000000900, 500.0000000000000000 ) ) ;
#177 = LINE ( 'NONE', #176, #42 ) ;
#178 = DIRECTION ( 'NONE',  ( 0.0000000000000000000, 0.0000000000000000000, 1.000000000000000000 ) ) ;
#179 = DIRECTION ( 'NONE',  ( -1.000000000000000000, 0.0000000000000000000, 0.0000000000000000000 ) ) ;
#180 = CARTESIAN_POINT ( 'NONE',  ( 5.000000000000000900, 2.500000000000000000, 500.0000000000000000 ) ) ;
#181 = DIRECTION ( 'NONE',  ( -0.0000000000000000000, 1.000000000000000000, -0.0000000000000000000 ) ) ;
#182 = CARTESIAN_POINT ( 'NONE',  ( 5.000000000000000900, 2.500000000000000000, 500.0000000000000000 ) ) ;
#183 = LINE ( 'NONE', #182, #22 ) ;
#184 = DIRECTION ( 'NONE',  ( -1.000000000000000000, 8.673617379884034200E-017, -0.0000000000000000000 ) ) ;
#185 = LINE ( 'NONE', #187, #37 ) ;
#186 = PLANE ( 'NONE',  #38 ) ;
#187 = CARTESIAN_POINT ( 'NONE',  ( -5.000000000000000900, 2.500000000000000900, 500.0000000000000000 ) ) ;
#188 = LINE ( 'NONE', #189, #52 ) ;
#189 = CARTESIAN_POINT ( 'NONE',  ( -5.000000000000000900, 2.500000000000000900, -500.0000000000000000 ) ) ;
#190 = DIRECTION ( 'NONE',  ( 0.0000000000000000000, -1.000000000000000000, 0.0000000000000000000 ) ) ;
#191 = DIRECTION ( 'NONE',  ( 1.000000000000000000, 8.673617379884034200E-017, 0.0000000000000000000 ) ) ;
#192 = LINE ( 'NONE', #193, #8 ) ;
#193 = CARTESIAN_POINT ( 'NONE',  ( 5.000000000000000900, -2.500000000000000000, 500.0000000000000000 ) ) ;
#194 = DIRECTION ( 'NONE',  ( -0.0000000000000000000, -0.0000000000000000000, -1.000000000000000000 ) ) ;
#195 = LINE ( 'NONE', #196, #24 ) ;
#196 = CARTESIAN_POINT ( 'NONE',  ( -5.000000000000000900, 2.500000000000000900, 500.0000000000000000 ) ) ;
#197 = DIRECTION ( 'NONE',  ( -0.0000000000000000000, -0.0000000000000000000, -1.000000000000000000 ) ) ;
#198 =( LENGTH_UNIT ( ) NAMED_UNIT ( * ) SI_UNIT ( .MILLI., .METRE. ) );
#199 =( NAMED_UNIT ( * ) PLANE_ANGLE_UNIT ( ) SI_UNIT ( $, .RADIAN. ) );
#200 =( NAMED_UNIT ( * ) SI_UNIT ( $, .STERADIAN. ) SOLID_ANGLE_UNIT ( ) );
#201 = APPLICATION_PROTOCOL_DEFINITION ( 'international standard', 'config_control_design', 1994, #174 ) ;
#202 = CARTESIAN_POINT ( 'NONE',  ( 0.0000000000000000000, 0.0000000000000000000, 0.0000000000000000000 ) ) ;
#203 = DIRECTION ( 'NONE',  ( 0.0000000000000000000, 0.0000000000000000000, 1.000000000000000000 ) ) ;
#204 = DIRECTION ( 'NONE',  ( 1.000000000000000000, 0.0000000000000000000, 0.0000000000000000000 ) ) ;
#205 = SHAPE_DEFINITION_REPRESENTATION ( #4, #2 ) ;
#206 = MECHANICAL_CONTEXT ( 'NONE', #174, 'mechanical' ) ;
#207 = PERSON_AND_ORGANIZATION ( #3, #40 ) ;
#208 = PERSON_AND_ORGANIZATION_ROLE ( 'design_owner' ) ;
#209 = APPLICATION_PROTOCOL_DEFINITION ( 'international standard', 'config_control_design', 1994, #173 ) ;
#210 = PERSON_AND_ORGANIZATION ( #3, #40 ) ;
#211 = APPROVAL_STATUS ( 'not_yet_approved' ) ;
#212 = APPROVAL_ROLE ( '' ) ;
#213 = DATE_AND_TIME ( #50, #147 ) ;
#214 = APPROVAL_DATE_TIME ( #213, #168 ) ;
#215 = PERSON_AND_ORGANIZATION ( #3, #40 ) ;
#216 = PERSON_AND_ORGANIZATION_ROLE ( 'creator' ) ;
#217 = DATE_AND_TIME ( #14, #146 ) ;
#218 = DATE_TIME_ROLE ( 'creation_date' ) ;
#219 = PERSON_AND_ORGANIZATION ( #3, #40 ) ;
#220 = APPROVAL_STATUS ( 'not_yet_approved' ) ;
#221 = APPROVAL_ROLE ( '' ) ;
#222 = DATE_AND_TIME ( #36, #150 ) ;
#223 = APPROVAL_DATE_TIME ( #222, #149 ) ;
#224 = PERSON_AND_ORGANIZATION ( #3, #40 ) ;
#225 = PERSON_AND_ORGANIZATION_ROLE ( 'creator' ) ;
#226 = PERSON_AND_ORGANIZATION ( #3, #40 ) ;
#227 = PERSON_AND_ORGANIZATION_ROLE ( 'design_supplier' ) ;
#228 = SECURITY_CLASSIFICATION_LEVEL ( 'unclassified' ) ;
#229 = PERSON_AND_ORGANIZATION ( #3, #40 ) ;
#230 = PERSON_AND_ORGANIZATION_ROLE ( 'classification_officer' ) ;
#231 = DATE_AND_TIME ( #49, #140 ) ;
#232 = DATE_TIME_ROLE ( 'classification_date' ) ;
#233 = PERSON_AND_ORGANIZATION ( #3, #40 ) ;
#234 = APPROVAL_STATUS ( 'not_yet_approved' ) ;
#235 = APPROVAL_ROLE ( '' ) ;
#236 = DATE_AND_TIME ( #18, #137 ) ;
#237 = APPROVAL_DATE_TIME ( #236, #138 ) ;
ENDSEC;
END-ISO-10303-21;
