ISO-10303-21;
HEADER;
FILE_DESCRIPTION (( 'STEP AP203' ),
    '1' );
FILE_NAME ('sone3D.STEP',
    '2013-08-09T06:35:00',
    ( '' ),
    ( '' ),
    'SwSTEP 2.0',
    'SolidWorks 2012',
    '' );
FILE_SCHEMA (( 'CONFIG_CONTROL_DESIGN' ));
ENDSEC;

DATA;
#1 = ADVANCED_BREP_SHAPE_REPRESENTATION ( 'sone3D', ( #5, #48 ), #55 ) ;
#2 = PERSON ( 'UNSPECIFIED', 'UNSPECIFIED', 'UNSPECIFIED', ('UNSPECIFIED'), ('UNSPECIFIED'), ('UNSPECIFIED') ) ;
#3 = UNCERTAINTY_MEASURE_WITH_UNIT (LENGTH_MEASURE( 1.000000000000000100E-005 ), #198, 'distance_accuracy_value', 'NONE');
#4 = PRODUCT_DEFINITION_SHAPE ( 'NONE', 'NONE',  #155 ) ;
#5 = MANIFOLD_SOLID_BREP ( 'ÎÞ½ - µoµ1', #24 ) ;
#6 = DESIGN_CONTEXT ( 'detailed design', #54, 'design' ) ;
#7 = COORDINATED_UNIVERSAL_TIME_OFFSET ( 9, 0, .AHEAD. ) ;
#8 = FACE_OUTER_BOUND ( 'NONE', #122, .T. ) ;
#9 = VECTOR ( 'NONE', #185, 1000.000000000000000 ) ;
#10 = APPROVAL_PERSON_ORGANIZATION ( #219, #150, #221 ) ;
#11 = FACE_OUTER_BOUND ( 'NONE', #120, .T. ) ;
#12 = PRODUCT_DEFINITION_FORMATION_WITH_SPECIFIED_SOURCE ( 'ANY', '', #174, .NOT_KNOWN. ) ;
#13 = AXIS2_PLACEMENT_3D ( 'NONE', #180, #181, #182 ) ;
#14 = AXIS2_PLACEMENT_3D ( 'NONE', #82, #124, #74 ) ;
#15 = VECTOR ( 'NONE', #188, 1000.000000000000000 ) ;
#16 = AXIS2_PLACEMENT_3D ( 'NONE', #78, #80, #77 ) ;
#17 = CALENDAR_DATE ( 2013, 9, 8 ) ;
#18 = ORGANIZATION ( 'UNSPECIFIED', 'UNSPECIFIED', '' ) ;
#19 = VECTOR ( 'NONE', #191, 1000.000000000000000 ) ;
#20 = VECTOR ( 'NONE', #56, 1000.000000000000000 ) ;
#21 = APPROVAL_PERSON_ORGANIZATION ( #233, #140, #235 ) ;
#22 = VECTOR ( 'NONE', #175, 1000.000000000000000 ) ;
#23 = VECTOR ( 'NONE', #197, 1000.000000000000000 ) ;
#24 = CLOSED_SHELL ( 'NONE', ( #154, #158, #167, #152, #163, #153 ) ) ;
#25 = CC_DESIGN_APPROVAL ( #156, ( #155 ) ) ;
#26 = VECTOR ( 'NONE', #68, 1000.000000000000000 ) ;
#27 = APPROVAL_PERSON_ORGANIZATION ( #210, #156, #212 ) ;
#28 = COORDINATED_UNIVERSAL_TIME_OFFSET ( 9, 0, .AHEAD. ) ;
#29 = VECTOR ( 'NONE', #60, 1000.000000000000000 ) ;
#30 = SECURITY_CLASSIFICATION ( '', '', #228 ) ;
#31 = COORDINATED_UNIVERSAL_TIME_OFFSET ( 9, 0, .AHEAD. ) ;
#32 = FACE_OUTER_BOUND ( 'NONE', #119, .T. ) ;
#33 = COORDINATED_UNIVERSAL_TIME_OFFSET ( 9, 0, .AHEAD. ) ;
#34 = CALENDAR_DATE ( 2013, 9, 8 ) ;
#35 = AXIS2_PLACEMENT_3D ( 'NONE', #130, #127, #129 ) ;
#36 = COORDINATED_UNIVERSAL_TIME_OFFSET ( 9, 0, .AHEAD. ) ;
#37 = VECTOR ( 'NONE', #81, 1000.000000000000000 ) ;
#38 = CALENDAR_DATE ( 2013, 9, 8 ) ;
#39 = VECTOR ( 'NONE', #194, 1000.000000000000000 ) ;
#40 = VECTOR ( 'NONE', #179, 1000.000000000000000 ) ;
#41 = CC_DESIGN_APPROVAL ( #150, ( #12 ) ) ;
#42 = AXIS2_PLACEMENT_3D ( 'NONE', #69, #62, #61 ) ;
#43 = FACE_OUTER_BOUND ( 'NONE', #117, .T. ) ;
#44 = CC_DESIGN_APPROVAL ( #140, ( #30 ) ) ;
#45 = FACE_OUTER_BOUND ( 'NONE', #65, .T. ) ;
#46 = VECTOR ( 'NONE', #57, 1000.000000000000000 ) ;
#47 = CALENDAR_DATE ( 2013, 9, 8 ) ;
#48 = AXIS2_PLACEMENT_3D ( 'NONE', #202, #203, #204 ) ;
#49 = CALENDAR_DATE ( 2013, 9, 8 ) ;
#50 = AXIS2_PLACEMENT_3D ( 'NONE', #75, #125, #134 ) ;
#51 = FACE_OUTER_BOUND ( 'NONE', #118, .T. ) ;
#52 = CC_DESIGN_SECURITY_CLASSIFICATION ( #30, ( #12 ) ) ;
#53 = APPLICATION_CONTEXT ( 'configuration controlled 3d designs of mechanical parts and assemblies' ) ;
#54 = APPLICATION_CONTEXT ( 'configuration controlled 3d designs of mechanical parts and assemblies' ) ;
#55 =( GEOMETRIC_REPRESENTATION_CONTEXT ( 3 ) GLOBAL_UNCERTAINTY_ASSIGNED_CONTEXT ( ( #3 ) ) GLOBAL_UNIT_ASSIGNED_CONTEXT ( ( #198, #199, #200 ) ) REPRESENTATION_CONTEXT ( 'NONE', 'WORKASPACE' ) );
#56 = DIRECTION ( 'NONE',  ( 1.000000000000000000, 5.421010862427522200E-017, 0.0000000000000000000 ) ) ;
#57 = DIRECTION ( 'NONE',  ( -0.0000000000000000000, 1.000000000000000000, -0.0000000000000000000 ) ) ;
#58 = LINE ( 'NONE', #64, #29 ) ;
#59 = CARTESIAN_POINT ( 'NONE',  ( -20.00000000000000000, 2.000000000000002200, 500.0000000000000000 ) ) ;
#60 = DIRECTION ( 'NONE',  ( 0.0000000000000000000, -1.000000000000000000, 0.0000000000000000000 ) ) ;
#61 = DIRECTION ( 'NONE',  ( 1.000000000000000000, 0.0000000000000000000, 0.0000000000000000000 ) ) ;
#62 = DIRECTION ( 'NONE',  ( -0.0000000000000000000, 0.0000000000000000000, 1.000000000000000000 ) ) ;
#63 = CARTESIAN_POINT ( 'NONE',  ( 20.00000000000000000, 2.000000000000000000, -500.0000000000000000 ) ) ;
#64 = CARTESIAN_POINT ( 'NONE',  ( -20.00000000000000000, 2.000000000000002200, 500.0000000000000000 ) ) ;
#65 = EDGE_LOOP ( 'NONE', ( #97, #96, #95, #98 ) ) ;
#66 = LINE ( 'NONE', #67, #20 ) ;
#67 = CARTESIAN_POINT ( 'NONE',  ( -20.00000000000000000, -2.000000000000002200, -500.0000000000000000 ) ) ;
#68 = DIRECTION ( 'NONE',  ( -1.000000000000000000, 5.421010862427522200E-017, -0.0000000000000000000 ) ) ;
#69 = CARTESIAN_POINT ( 'NONE',  ( 0.0000000000000000000, 0.0000000000000000000, 500.0000000000000000 ) ) ;
#70 = CARTESIAN_POINT ( 'NONE',  ( -20.00000000000000000, 2.000000000000002200, -500.0000000000000000 ) ) ;
#71 = PLANE ( 'NONE',  #13 ) ;
#72 = PLANE ( 'NONE',  #42 ) ;
#73 = CARTESIAN_POINT ( 'NONE',  ( 20.00000000000000000, 2.000000000000000000, 500.0000000000000000 ) ) ;
#74 = DIRECTION ( 'NONE',  ( -1.000000000000000000, -5.421010862427522200E-017, 0.0000000000000000000 ) ) ;
#75 = CARTESIAN_POINT ( 'NONE',  ( 0.0000000000000000000, 0.0000000000000000000, -500.0000000000000000 ) ) ;
#76 = PLANE ( 'NONE',  #50 ) ;
#77 = DIRECTION ( 'NONE',  ( 1.000000000000000000, -5.421010862427522200E-017, 0.0000000000000000000 ) ) ;
#78 = CARTESIAN_POINT ( 'NONE',  ( -20.00000000000000000, 2.000000000000002200, 500.0000000000000000 ) ) ;
#79 = LINE ( 'NONE', #63, #46 ) ;
#80 = DIRECTION ( 'NONE',  ( -5.421010862427522200E-017, -1.000000000000000000, 0.0000000000000000000 ) ) ;
#81 = DIRECTION ( 'NONE',  ( 1.000000000000000000, 5.421010862427522200E-017, 0.0000000000000000000 ) ) ;
#82 = CARTESIAN_POINT ( 'NONE',  ( -20.00000000000000000, -2.000000000000002200, 500.0000000000000000 ) ) ;
#83 = LINE ( 'NONE', #176, #22 ) ;
#84 = PLANE ( 'NONE',  #14 ) ;
#85 = VERTEX_POINT ( 'NONE', #132 ) ;
#86 = VERTEX_POINT ( 'NONE', #70 ) ;
#87 = VERTEX_POINT ( 'NONE', #133 ) ;
#88 = VERTEX_POINT ( 'NONE', #73 ) ;
#89 = VERTEX_POINT ( 'NONE', #121 ) ;
#90 = VERTEX_POINT ( 'NONE', #135 ) ;
#91 = VERTEX_POINT ( 'NONE', #136 ) ;
#92 = VERTEX_POINT ( 'NONE', #137 ) ;
#93 = ORIENTED_EDGE ( 'NONE', *, *, #169, .T. ) ;
#94 = ORIENTED_EDGE ( 'NONE', *, *, #172, .F. ) ;
#95 = ORIENTED_EDGE ( 'NONE', *, *, #162, .F. ) ;
#96 = ORIENTED_EDGE ( 'NONE', *, *, #166, .F. ) ;
#97 = ORIENTED_EDGE ( 'NONE', *, *, #165, .F. ) ;
#98 = ORIENTED_EDGE ( 'NONE', *, *, #164, .F. ) ;
#99 = ORIENTED_EDGE ( 'NONE', *, *, #171, .T. ) ;
#100 = ORIENTED_EDGE ( 'NONE', *, *, #157, .T. ) ;
#101 = ORIENTED_EDGE ( 'NONE', *, *, #161, .T. ) ;
#102 = ORIENTED_EDGE ( 'NONE', *, *, #170, .T. ) ;
#103 = ORIENTED_EDGE ( 'NONE', *, *, #160, .T. ) ;
#104 = ORIENTED_EDGE ( 'NONE', *, *, #169, .F. ) ;
#105 = ORIENTED_EDGE ( 'NONE', *, *, #160, .F. ) ;
#106 = ORIENTED_EDGE ( 'NONE', *, *, #166, .T. ) ;
#107 = ORIENTED_EDGE ( 'NONE', *, *, #171, .F. ) ;
#108 = ORIENTED_EDGE ( 'NONE', *, *, #170, .F. ) ;
#109 = ORIENTED_EDGE ( 'NONE', *, *, #172, .T. ) ;
#110 = ORIENTED_EDGE ( 'NONE', *, *, #164, .T. ) ;
#111 = ORIENTED_EDGE ( 'NONE', *, *, #157, .F. ) ;
#112 = ORIENTED_EDGE ( 'NONE', *, *, #162, .T. ) ;
#113 = ORIENTED_EDGE ( 'NONE', *, *, #168, .T. ) ;
#114 = ORIENTED_EDGE ( 'NONE', *, *, #161, .F. ) ;
#115 = ORIENTED_EDGE ( 'NONE', *, *, #168, .F. ) ;
#116 = ORIENTED_EDGE ( 'NONE', *, *, #165, .T. ) ;
#117 = EDGE_LOOP ( 'NONE', ( #110, #94, #111, #113 ) ) ;
#118 = EDGE_LOOP ( 'NONE', ( #112, #108, #107, #109 ) ) ;
#119 = EDGE_LOOP ( 'NONE', ( #116, #115, #114, #93 ) ) ;
#120 = EDGE_LOOP ( 'NONE', ( #106, #104, #105, #102 ) ) ;
#121 = CARTESIAN_POINT ( 'NONE',  ( -20.00000000000000000, -2.000000000000002200, 500.0000000000000000 ) ) ;
#122 = EDGE_LOOP ( 'NONE', ( #101, #100, #99, #103 ) ) ;
#123 = LINE ( 'NONE', #59, #26 ) ;
#124 = DIRECTION ( 'NONE',  ( -5.421010862427522200E-017, 1.000000000000000000, 0.0000000000000000000 ) ) ;
#125 = DIRECTION ( 'NONE',  ( -0.0000000000000000000, 0.0000000000000000000, 1.000000000000000000 ) ) ;
#126 = PLANE ( 'NONE',  #35 ) ;
#127 = DIRECTION ( 'NONE',  ( 1.000000000000000000, 0.0000000000000000000, -0.0000000000000000000 ) ) ;
#128 = LINE ( 'NONE', #131, #37 ) ;
#129 = DIRECTION ( 'NONE',  ( -0.0000000000000000000, 0.0000000000000000000, -1.000000000000000000 ) ) ;
#130 = CARTESIAN_POINT ( 'NONE',  ( -20.00000000000000000, 2.000000000000002200, 500.0000000000000000 ) ) ;
#131 = CARTESIAN_POINT ( 'NONE',  ( -20.00000000000000000, -2.000000000000002200, 500.0000000000000000 ) ) ;
#132 = CARTESIAN_POINT ( 'NONE',  ( -20.00000000000000000, -2.000000000000002200, -500.0000000000000000 ) ) ;
#133 = CARTESIAN_POINT ( 'NONE',  ( -20.00000000000000000, 2.000000000000002200, 500.0000000000000000 ) ) ;
#134 = DIRECTION ( 'NONE',  ( 1.000000000000000000, 0.0000000000000000000, 0.0000000000000000000 ) ) ;
#135 = CARTESIAN_POINT ( 'NONE',  ( 20.00000000000000000, -2.000000000000000000, 500.0000000000000000 ) ) ;
#136 = CARTESIAN_POINT ( 'NONE',  ( 20.00000000000000000, -2.000000000000000000, -500.0000000000000000 ) ) ;
#137 = CARTESIAN_POINT ( 'NONE',  ( 20.00000000000000000, 2.000000000000000000, -500.0000000000000000 ) ) ;
#138 = PLANE ( 'NONE',  #16 ) ;
#139 = LOCAL_TIME ( 15, 35, 0.0000000000000000000, #7 ) ;
#140 = APPROVAL ( #234, 'UNSPECIFIED' ) ;
#141 = CC_DESIGN_DATE_AND_TIME_ASSIGNMENT ( #231, #232, ( #30 ) ) ;
#142 = LOCAL_TIME ( 15, 35, 0.0000000000000000000, #31 ) ;
#143 = CC_DESIGN_PERSON_AND_ORGANIZATION_ASSIGNMENT ( #229, #230, ( #30 ) ) ;
#144 = CC_DESIGN_PERSON_AND_ORGANIZATION_ASSIGNMENT ( #226, #227, ( #12 ) ) ;
#145 = CC_DESIGN_PERSON_AND_ORGANIZATION_ASSIGNMENT ( #224, #225, ( #12 ) ) ;
#146 = CC_DESIGN_PERSON_AND_ORGANIZATION_ASSIGNMENT ( #215, #216, ( #155 ) ) ;
#147 = LOCAL_TIME ( 15, 35, 0.0000000000000000000, #36 ) ;
#148 = LOCAL_TIME ( 15, 35, 0.0000000000000000000, #28 ) ;
#149 = CC_DESIGN_DATE_AND_TIME_ASSIGNMENT ( #217, #218, ( #155 ) ) ;
#150 = APPROVAL ( #220, 'UNSPECIFIED' ) ;
#151 = LOCAL_TIME ( 15, 35, 0.0000000000000000000, #33 ) ;
#152 = ADVANCED_FACE ( 'NONE', ( #11 ), #138, .F. ) ;
#153 = ADVANCED_FACE ( 'NONE', ( #45 ), #76, .F. ) ;
#154 = ADVANCED_FACE ( 'NONE', ( #32 ), #126, .F. ) ;
#155 = PRODUCT_DEFINITION ( 'UNKNOWN', '', #12, #6 ) ;
#156 = APPROVAL ( #211, 'UNSPECIFIED' ) ;
#157 = EDGE_CURVE ( 'NONE', #89, #90, #128, .T. ) ;
#158 = ADVANCED_FACE ( 'NONE', ( #43 ), #84, .F. ) ;
#159 = CC_DESIGN_PERSON_AND_ORGANIZATION_ASSIGNMENT ( #207, #208, ( #174 ) ) ;
#160 = EDGE_CURVE ( 'NONE', #88, #87, #123, .T. ) ;
#161 = EDGE_CURVE ( 'NONE', #87, #89, #58, .T. ) ;
#162 = EDGE_CURVE ( 'NONE', #91, #92, #79, .T. ) ;
#163 = ADVANCED_FACE ( 'NONE', ( #8 ), #72, .T. ) ;
#164 = EDGE_CURVE ( 'NONE', #85, #91, #66, .T. ) ;
#165 = EDGE_CURVE ( 'NONE', #86, #85, #83, .T. ) ;
#166 = EDGE_CURVE ( 'NONE', #92, #86, #177, .T. ) ;
#167 = ADVANCED_FACE ( 'NONE', ( #51 ), #71, .F. ) ;
#168 = EDGE_CURVE ( 'NONE', #89, #85, #183, .T. ) ;
#169 = EDGE_CURVE ( 'NONE', #87, #86, #186, .T. ) ;
#170 = EDGE_CURVE ( 'NONE', #88, #92, #189, .T. ) ;
#171 = EDGE_CURVE ( 'NONE', #90, #88, #192, .T. ) ;
#172 = EDGE_CURVE ( 'NONE', #90, #91, #195, .T. ) ;
#173 = PRODUCT_RELATED_PRODUCT_CATEGORY ( 'detail', '', ( #174 ) ) ;
#174 = PRODUCT ( 'sone3D', 'sone3D', '', ( #206 ) ) ;
#175 = DIRECTION ( 'NONE',  ( 0.0000000000000000000, -1.000000000000000000, 0.0000000000000000000 ) ) ;
#176 = CARTESIAN_POINT ( 'NONE',  ( -20.00000000000000000, 2.000000000000002200, -500.0000000000000000 ) ) ;
#177 = LINE ( 'NONE', #178, #40 ) ;
#178 = CARTESIAN_POINT ( 'NONE',  ( -20.00000000000000000, 2.000000000000002200, -500.0000000000000000 ) ) ;
#179 = DIRECTION ( 'NONE',  ( -1.000000000000000000, 5.421010862427522200E-017, -0.0000000000000000000 ) ) ;
#180 = CARTESIAN_POINT ( 'NONE',  ( 20.00000000000000000, 2.000000000000000000, 500.0000000000000000 ) ) ;
#181 = DIRECTION ( 'NONE',  ( -1.000000000000000000, 0.0000000000000000000, 0.0000000000000000000 ) ) ;
#182 = DIRECTION ( 'NONE',  ( 0.0000000000000000000, 0.0000000000000000000, 1.000000000000000000 ) ) ;
#183 = LINE ( 'NONE', #184, #9 ) ;
#184 = CARTESIAN_POINT ( 'NONE',  ( -20.00000000000000000, -2.000000000000002200, 500.0000000000000000 ) ) ;
#185 = DIRECTION ( 'NONE',  ( -0.0000000000000000000, -0.0000000000000000000, -1.000000000000000000 ) ) ;
#186 = LINE ( 'NONE', #187, #15 ) ;
#187 = CARTESIAN_POINT ( 'NONE',  ( -20.00000000000000000, 2.000000000000002200, 500.0000000000000000 ) ) ;
#188 = DIRECTION ( 'NONE',  ( -0.0000000000000000000, -0.0000000000000000000, -1.000000000000000000 ) ) ;
#189 = LINE ( 'NONE', #190, #19 ) ;
#190 = CARTESIAN_POINT ( 'NONE',  ( 20.00000000000000000, 2.000000000000000000, 500.0000000000000000 ) ) ;
#191 = DIRECTION ( 'NONE',  ( -0.0000000000000000000, -0.0000000000000000000, -1.000000000000000000 ) ) ;
#192 = LINE ( 'NONE', #193, #39 ) ;
#193 = CARTESIAN_POINT ( 'NONE',  ( 20.00000000000000000, 2.000000000000000000, 500.0000000000000000 ) ) ;
#194 = DIRECTION ( 'NONE',  ( -0.0000000000000000000, 1.000000000000000000, -0.0000000000000000000 ) ) ;
#195 = LINE ( 'NONE', #196, #23 ) ;
#196 = CARTESIAN_POINT ( 'NONE',  ( 20.00000000000000000, -2.000000000000000000, 500.0000000000000000 ) ) ;
#197 = DIRECTION ( 'NONE',  ( -0.0000000000000000000, -0.0000000000000000000, -1.000000000000000000 ) ) ;
#198 =( LENGTH_UNIT ( ) NAMED_UNIT ( * ) SI_UNIT ( .MILLI., .METRE. ) );
#199 =( NAMED_UNIT ( * ) PLANE_ANGLE_UNIT ( ) SI_UNIT ( $, .RADIAN. ) );
#200 =( NAMED_UNIT ( * ) SI_UNIT ( $, .STERADIAN. ) SOLID_ANGLE_UNIT ( ) );
#201 = APPLICATION_PROTOCOL_DEFINITION ( 'international standard', 'config_control_design', 1994, #53 ) ;
#202 = CARTESIAN_POINT ( 'NONE',  ( 0.0000000000000000000, 0.0000000000000000000, 0.0000000000000000000 ) ) ;
#203 = DIRECTION ( 'NONE',  ( 0.0000000000000000000, 0.0000000000000000000, 1.000000000000000000 ) ) ;
#204 = DIRECTION ( 'NONE',  ( 1.000000000000000000, 0.0000000000000000000, 0.0000000000000000000 ) ) ;
#205 = SHAPE_DEFINITION_REPRESENTATION ( #4, #1 ) ;
#206 = MECHANICAL_CONTEXT ( 'NONE', #53, 'mechanical' ) ;
#207 = PERSON_AND_ORGANIZATION ( #2, #18 ) ;
#208 = PERSON_AND_ORGANIZATION_ROLE ( 'design_owner' ) ;
#209 = APPLICATION_PROTOCOL_DEFINITION ( 'international standard', 'config_control_design', 1994, #54 ) ;
#210 = PERSON_AND_ORGANIZATION ( #2, #18 ) ;
#211 = APPROVAL_STATUS ( 'not_yet_approved' ) ;
#212 = APPROVAL_ROLE ( '' ) ;
#213 = DATE_AND_TIME ( #47, #148 ) ;
#214 = APPROVAL_DATE_TIME ( #213, #156 ) ;
#215 = PERSON_AND_ORGANIZATION ( #2, #18 ) ;
#216 = PERSON_AND_ORGANIZATION_ROLE ( 'creator' ) ;
#217 = DATE_AND_TIME ( #34, #147 ) ;
#218 = DATE_TIME_ROLE ( 'creation_date' ) ;
#219 = PERSON_AND_ORGANIZATION ( #2, #18 ) ;
#220 = APPROVAL_STATUS ( 'not_yet_approved' ) ;
#221 = APPROVAL_ROLE ( '' ) ;
#222 = DATE_AND_TIME ( #38, #151 ) ;
#223 = APPROVAL_DATE_TIME ( #222, #150 ) ;
#224 = PERSON_AND_ORGANIZATION ( #2, #18 ) ;
#225 = PERSON_AND_ORGANIZATION_ROLE ( 'creator' ) ;
#226 = PERSON_AND_ORGANIZATION ( #2, #18 ) ;
#227 = PERSON_AND_ORGANIZATION_ROLE ( 'design_supplier' ) ;
#228 = SECURITY_CLASSIFICATION_LEVEL ( 'unclassified' ) ;
#229 = PERSON_AND_ORGANIZATION ( #2, #18 ) ;
#230 = PERSON_AND_ORGANIZATION_ROLE ( 'classification_officer' ) ;
#231 = DATE_AND_TIME ( #49, #142 ) ;
#232 = DATE_TIME_ROLE ( 'classification_date' ) ;
#233 = PERSON_AND_ORGANIZATION ( #2, #18 ) ;
#234 = APPROVAL_STATUS ( 'not_yet_approved' ) ;
#235 = APPROVAL_ROLE ( '' ) ;
#236 = DATE_AND_TIME ( #17, #139 ) ;
#237 = APPROVAL_DATE_TIME ( #236, #140 ) ;
ENDSEC;
END-ISO-10303-21;
