ISO-10303-21;
HEADER;
FILE_DESCRIPTION (( 'STEP AP203' ),
    '1' );
FILE_NAME ('sone3D.STEP',
    '2013-08-09T06:34:15',
    ( '' ),
    ( '' ),
    'SwSTEP 2.0',
    'SolidWorks 2012',
    '' );
FILE_SCHEMA (( 'CONFIG_CONTROL_DESIGN' ));
ENDSEC;

DATA;
#1 = PERSON ( 'UNSPECIFIED', 'UNSPECIFIED', 'UNSPECIFIED', ('UNSPECIFIED'), ('UNSPECIFIED'), ('UNSPECIFIED') ) ;
#2 = UNCERTAINTY_MEASURE_WITH_UNIT (LENGTH_MEASURE( 1.000000000000000100E-005 ), #198, 'distance_accuracy_value', 'NONE');
#3 = ADVANCED_BREP_SHAPE_REPRESENTATION ( 'sone3D', ( #6, #14 ), #63 ) ;
#4 = DESIGN_CONTEXT ( 'detailed design', #149, 'design' ) ;
#5 = PRODUCT_DEFINITION_SHAPE ( 'NONE', 'NONE',  #172 ) ;
#6 = MANIFOLD_SOLID_BREP ( 'ÎÞ½ - µoµ1', #18 ) ;
#7 = ORGANIZATION ( 'UNSPECIFIED', 'UNSPECIFIED', '' ) ;
#8 = AXIS2_PLACEMENT_3D ( 'NONE', #67, #72, #71 ) ;
#9 = VECTOR ( 'NONE', #140, 1000.000000000000000 ) ;
#10 = COORDINATED_UNIVERSAL_TIME_OFFSET ( 9, 0, .AHEAD. ) ;
#11 = APPROVAL_PERSON_ORGANIZATION ( #233, #151, #235 ) ;
#12 = CALENDAR_DATE ( 2013, 9, 8 ) ;
#13 = COORDINATED_UNIVERSAL_TIME_OFFSET ( 9, 0, .AHEAD. ) ;
#14 = AXIS2_PLACEMENT_3D ( 'NONE', #202, #203, #204 ) ;
#15 = VECTOR ( 'NONE', #85, 1000.000000000000000 ) ;
#16 = COORDINATED_UNIVERSAL_TIME_OFFSET ( 9, 0, .AHEAD. ) ;
#17 = VECTOR ( 'NONE', #56, 1000.000000000000000 ) ;
#18 = CLOSED_SHELL ( 'NONE', ( #170, #169, #177, #171, #173, #167 ) ) ;
#19 = VECTOR ( 'NONE', #194, 1000.000000000000000 ) ;
#20 = AXIS2_PLACEMENT_3D ( 'NONE', #75, #64, #70 ) ;
#21 = VECTOR ( 'NONE', #82, 1000.000000000000000 ) ;
#22 = APPROVAL_PERSON_ORGANIZATION ( #210, #179, #212 ) ;
#23 = VECTOR ( 'NONE', #53, 1000.000000000000000 ) ;
#24 = FACE_OUTER_BOUND ( 'NONE', #127, .T. ) ;
#25 = AXIS2_PLACEMENT_3D ( 'NONE', #69, #97, #87 ) ;
#26 = CC_DESIGN_SECURITY_CLASSIFICATION ( #43, ( #28 ) ) ;
#27 = VECTOR ( 'NONE', #95, 1000.000000000000000 ) ;
#28 = PRODUCT_DEFINITION_FORMATION_WITH_SPECIFIED_SOURCE ( 'ANY', '', #185, .NOT_KNOWN. ) ;
#29 = CALENDAR_DATE ( 2013, 9, 8 ) ;
#30 = CALENDAR_DATE ( 2013, 9, 8 ) ;
#31 = APPROVAL_PERSON_ORGANIZATION ( #219, #165, #221 ) ;
#32 = CC_DESIGN_APPROVAL ( #151, ( #43 ) ) ;
#33 = VECTOR ( 'NONE', #191, 1000.000000000000000 ) ;
#34 = AXIS2_PLACEMENT_3D ( 'NONE', #66, #73, #132 ) ;
#35 = CALENDAR_DATE ( 2013, 9, 8 ) ;
#36 = COORDINATED_UNIVERSAL_TIME_OFFSET ( 9, 0, .AHEAD. ) ;
#37 = AXIS2_PLACEMENT_3D ( 'NONE', #78, #77, #74 ) ;
#38 = VECTOR ( 'NONE', #86, 1000.000000000000000 ) ;
#39 = AXIS2_PLACEMENT_3D ( 'NONE', #62, #61, #60 ) ;
#40 = CALENDAR_DATE ( 2013, 9, 8 ) ;
#41 = FACE_OUTER_BOUND ( 'NONE', #125, .T. ) ;
#42 = FACE_OUTER_BOUND ( 'NONE', #124, .T. ) ;
#43 = SECURITY_CLASSIFICATION ( '', '', #228 ) ;
#44 = VECTOR ( 'NONE', #93, 1000.000000000000000 ) ;
#45 = FACE_OUTER_BOUND ( 'NONE', #122, .T. ) ;
#46 = CC_DESIGN_APPROVAL ( #165, ( #28 ) ) ;
#47 = VECTOR ( 'NONE', #197, 1000.000000000000000 ) ;
#48 = FACE_OUTER_BOUND ( 'NONE', #126, .T. ) ;
#49 = VECTOR ( 'NONE', #186, 1000.000000000000000 ) ;
#50 = FACE_OUTER_BOUND ( 'NONE', #123, .T. ) ;
#51 = COORDINATED_UNIVERSAL_TIME_OFFSET ( 9, 0, .AHEAD. ) ;
#52 = CC_DESIGN_APPROVAL ( #179, ( #172 ) ) ;
#53 = DIRECTION ( 'NONE',  ( -1.000000000000000000, 4.336808689942017700E-017, -0.0000000000000000000 ) ) ;
#54 = CARTESIAN_POINT ( 'NONE',  ( -15.00000000000000000, 2.000000000000001300, -500.0000000000000000 ) ) ;
#55 = LINE ( 'NONE', #54, #23 ) ;
#56 = DIRECTION ( 'NONE',  ( 0.0000000000000000000, -1.000000000000000000, 0.0000000000000000000 ) ) ;
#57 = CARTESIAN_POINT ( 'NONE',  ( -15.00000000000000000, 2.000000000000001300, -500.0000000000000000 ) ) ;
#58 = PLANE ( 'NONE',  #39 ) ;
#59 = LINE ( 'NONE', #57, #17 ) ;
#60 = DIRECTION ( 'NONE',  ( 0.0000000000000000000, 0.0000000000000000000, 1.000000000000000000 ) ) ;
#61 = DIRECTION ( 'NONE',  ( -1.000000000000000000, 0.0000000000000000000, 0.0000000000000000000 ) ) ;
#62 = CARTESIAN_POINT ( 'NONE',  ( 15.00000000000000000, 2.000000000000000000, 500.0000000000000000 ) ) ;
#63 =( GEOMETRIC_REPRESENTATION_CONTEXT ( 3 ) GLOBAL_UNCERTAINTY_ASSIGNED_CONTEXT ( ( #2 ) ) GLOBAL_UNIT_ASSIGNED_CONTEXT ( ( #198, #199, #200 ) ) REPRESENTATION_CONTEXT ( 'NONE', 'WORKASPACE' ) );
#64 = DIRECTION ( 'NONE',  ( 1.000000000000000000, 0.0000000000000000000, -0.0000000000000000000 ) ) ;
#65 = LINE ( 'NONE', #88, #44 ) ;
#66 = CARTESIAN_POINT ( 'NONE',  ( 0.0000000000000000000, 0.0000000000000000000, 500.0000000000000000 ) ) ;
#67 = CARTESIAN_POINT ( 'NONE',  ( -15.00000000000000000, 2.000000000000001300, 500.0000000000000000 ) ) ;
#68 = PLANE ( 'NONE',  #8 ) ;
#69 = CARTESIAN_POINT ( 'NONE',  ( 0.0000000000000000000, 0.0000000000000000000, -500.0000000000000000 ) ) ;
#70 = DIRECTION ( 'NONE',  ( -0.0000000000000000000, 0.0000000000000000000, -1.000000000000000000 ) ) ;
#71 = DIRECTION ( 'NONE',  ( 1.000000000000000000, -4.336808689942017700E-017, 0.0000000000000000000 ) ) ;
#72 = DIRECTION ( 'NONE',  ( -4.336808689942017700E-017, -1.000000000000000000, 0.0000000000000000000 ) ) ;
#73 = DIRECTION ( 'NONE',  ( -0.0000000000000000000, 0.0000000000000000000, 1.000000000000000000 ) ) ;
#74 = DIRECTION ( 'NONE',  ( -1.000000000000000000, -4.336808689942017700E-017, 0.0000000000000000000 ) ) ;
#75 = CARTESIAN_POINT ( 'NONE',  ( -15.00000000000000000, 2.000000000000001300, 500.0000000000000000 ) ) ;
#76 = PLANE ( 'NONE',  #20 ) ;
#77 = DIRECTION ( 'NONE',  ( -4.336808689942017700E-017, 1.000000000000000000, 0.0000000000000000000 ) ) ;
#78 = CARTESIAN_POINT ( 'NONE',  ( -15.00000000000000000, -2.000000000000001300, 500.0000000000000000 ) ) ;
#79 = PLANE ( 'NONE',  #37 ) ;
#80 = CARTESIAN_POINT ( 'NONE',  ( -15.00000000000000000, -2.000000000000001300, -500.0000000000000000 ) ) ;
#81 = LINE ( 'NONE', #90, #38 ) ;
#82 = DIRECTION ( 'NONE',  ( -0.0000000000000000000, -0.0000000000000000000, -1.000000000000000000 ) ) ;
#83 = CARTESIAN_POINT ( 'NONE',  ( -15.00000000000000000, -2.000000000000001300, 500.0000000000000000 ) ) ;
#84 = LINE ( 'NONE', #83, #21 ) ;
#85 = DIRECTION ( 'NONE',  ( -0.0000000000000000000, -0.0000000000000000000, -1.000000000000000000 ) ) ;
#86 = DIRECTION ( 'NONE',  ( -0.0000000000000000000, -0.0000000000000000000, -1.000000000000000000 ) ) ;
#87 = DIRECTION ( 'NONE',  ( 1.000000000000000000, 0.0000000000000000000, 0.0000000000000000000 ) ) ;
#88 = CARTESIAN_POINT ( 'NONE',  ( -15.00000000000000000, -2.000000000000001300, -500.0000000000000000 ) ) ;
#89 = PLANE ( 'NONE',  #34 ) ;
#90 = CARTESIAN_POINT ( 'NONE',  ( 15.00000000000000000, 2.000000000000000000, 500.0000000000000000 ) ) ;
#91 = VERTEX_POINT ( 'NONE', #80 ) ;
#92 = ORIENTED_EDGE ( 'NONE', *, *, #159, .T. ) ;
#93 = DIRECTION ( 'NONE',  ( 1.000000000000000000, 4.336808689942017700E-017, 0.0000000000000000000 ) ) ;
#94 = CARTESIAN_POINT ( 'NONE',  ( 15.00000000000000000, 2.000000000000000000, -500.0000000000000000 ) ) ;
#95 = DIRECTION ( 'NONE',  ( -0.0000000000000000000, 1.000000000000000000, -0.0000000000000000000 ) ) ;
#96 = CARTESIAN_POINT ( 'NONE',  ( -15.00000000000000000, 2.000000000000001300, 500.0000000000000000 ) ) ;
#97 = DIRECTION ( 'NONE',  ( -0.0000000000000000000, 0.0000000000000000000, 1.000000000000000000 ) ) ;
#98 = LINE ( 'NONE', #96, #15 ) ;
#99 = ORIENTED_EDGE ( 'NONE', *, *, #181, .F. ) ;
#100 = ORIENTED_EDGE ( 'NONE', *, *, #182, .F. ) ;
#101 = ORIENTED_EDGE ( 'NONE', *, *, #178, .F. ) ;
#102 = ORIENTED_EDGE ( 'NONE', *, *, #176, .F. ) ;
#103 = ORIENTED_EDGE ( 'NONE', *, *, #175, .F. ) ;
#104 = ORIENTED_EDGE ( 'NONE', *, *, #174, .F. ) ;
#105 = ORIENTED_EDGE ( 'NONE', *, *, #158, .T. ) ;
#106 = ORIENTED_EDGE ( 'NONE', *, *, #180, .T. ) ;
#107 = ORIENTED_EDGE ( 'NONE', *, *, #181, .T. ) ;
#108 = ORIENTED_EDGE ( 'NONE', *, *, #163, .T. ) ;
#109 = ORIENTED_EDGE ( 'NONE', *, *, #157, .T. ) ;
#110 = ORIENTED_EDGE ( 'NONE', *, *, #159, .F. ) ;
#111 = ORIENTED_EDGE ( 'NONE', *, *, #157, .F. ) ;
#112 = ORIENTED_EDGE ( 'NONE', *, *, #176, .T. ) ;
#113 = ORIENTED_EDGE ( 'NONE', *, *, #158, .F. ) ;
#114 = ORIENTED_EDGE ( 'NONE', *, *, #163, .F. ) ;
#115 = ORIENTED_EDGE ( 'NONE', *, *, #178, .T. ) ;
#116 = ORIENTED_EDGE ( 'NONE', *, *, #174, .T. ) ;
#117 = ORIENTED_EDGE ( 'NONE', *, *, #175, .T. ) ;
#118 = ORIENTED_EDGE ( 'NONE', *, *, #182, .T. ) ;
#119 = ORIENTED_EDGE ( 'NONE', *, *, #180, .F. ) ;
#120 = ORIENTED_EDGE ( 'NONE', *, *, #168, .F. ) ;
#121 = ORIENTED_EDGE ( 'NONE', *, *, #168, .T. ) ;
#122 = EDGE_LOOP ( 'NONE', ( #116, #101, #119, #121 ) ) ;
#123 = EDGE_LOOP ( 'NONE', ( #118, #114, #113, #115 ) ) ;
#124 = EDGE_LOOP ( 'NONE', ( #117, #120, #99, #92 ) ) ;
#125 = EDGE_LOOP ( 'NONE', ( #112, #110, #111, #108 ) ) ;
#126 = EDGE_LOOP ( 'NONE', ( #107, #106, #105, #109 ) ) ;
#127 = EDGE_LOOP ( 'NONE', ( #103, #102, #100, #104 ) ) ;
#128 = VERTEX_POINT ( 'NONE', #94 ) ;
#129 = VERTEX_POINT ( 'NONE', #144 ) ;
#130 = VERTEX_POINT ( 'NONE', #145 ) ;
#131 = VERTEX_POINT ( 'NONE', #146 ) ;
#132 = DIRECTION ( 'NONE',  ( 1.000000000000000000, 0.0000000000000000000, 0.0000000000000000000 ) ) ;
#133 = VERTEX_POINT ( 'NONE', #147 ) ;
#134 = CARTESIAN_POINT ( 'NONE',  ( 15.00000000000000000, -2.000000000000000000, -500.0000000000000000 ) ) ;
#135 = CARTESIAN_POINT ( 'NONE',  ( -15.00000000000000000, 2.000000000000001300, 500.0000000000000000 ) ) ;
#136 = LINE ( 'NONE', #138, #27 ) ;
#137 = PLANE ( 'NONE',  #25 ) ;
#138 = CARTESIAN_POINT ( 'NONE',  ( 15.00000000000000000, 2.000000000000000000, 500.0000000000000000 ) ) ;
#139 = LINE ( 'NONE', #135, #9 ) ;
#140 = DIRECTION ( 'NONE',  ( -1.000000000000000000, 4.336808689942017700E-017, -0.0000000000000000000 ) ) ;
#141 = VERTEX_POINT ( 'NONE', #134 ) ;
#142 = VERTEX_POINT ( 'NONE', #143 ) ;
#143 = CARTESIAN_POINT ( 'NONE',  ( 15.00000000000000000, 2.000000000000000000, 500.0000000000000000 ) ) ;
#144 = CARTESIAN_POINT ( 'NONE',  ( -15.00000000000000000, 2.000000000000001300, 500.0000000000000000 ) ) ;
#145 = CARTESIAN_POINT ( 'NONE',  ( -15.00000000000000000, -2.000000000000001300, 500.0000000000000000 ) ) ;
#146 = CARTESIAN_POINT ( 'NONE',  ( 15.00000000000000000, -2.000000000000000000, 500.0000000000000000 ) ) ;
#147 = CARTESIAN_POINT ( 'NONE',  ( -15.00000000000000000, 2.000000000000001300, -500.0000000000000000 ) ) ;
#148 = APPLICATION_CONTEXT ( 'configuration controlled 3d designs of mechanical parts and assemblies' ) ;
#149 = APPLICATION_CONTEXT ( 'configuration controlled 3d designs of mechanical parts and assemblies' ) ;
#150 = LOCAL_TIME ( 15, 34, 15.00000000000000000, #16 ) ;
#151 = APPROVAL ( #234, 'UNSPECIFIED' ) ;
#152 = CC_DESIGN_DATE_AND_TIME_ASSIGNMENT ( #231, #232, ( #43 ) ) ;
#153 = LOCAL_TIME ( 15, 34, 15.00000000000000000, #51 ) ;
#154 = CC_DESIGN_PERSON_AND_ORGANIZATION_ASSIGNMENT ( #229, #230, ( #43 ) ) ;
#155 = CC_DESIGN_PERSON_AND_ORGANIZATION_ASSIGNMENT ( #226, #227, ( #28 ) ) ;
#156 = CC_DESIGN_PERSON_AND_ORGANIZATION_ASSIGNMENT ( #224, #225, ( #28 ) ) ;
#157 = EDGE_CURVE ( 'NONE', #142, #129, #139, .T. ) ;
#158 = EDGE_CURVE ( 'NONE', #131, #142, #136, .T. ) ;
#159 = EDGE_CURVE ( 'NONE', #129, #133, #98, .T. ) ;
#160 = CC_DESIGN_PERSON_AND_ORGANIZATION_ASSIGNMENT ( #215, #216, ( #172 ) ) ;
#161 = LOCAL_TIME ( 15, 34, 15.00000000000000000, #36 ) ;
#162 = LOCAL_TIME ( 15, 34, 15.00000000000000000, #10 ) ;
#163 = EDGE_CURVE ( 'NONE', #142, #128, #81, .T. ) ;
#164 = CC_DESIGN_DATE_AND_TIME_ASSIGNMENT ( #217, #218, ( #172 ) ) ;
#165 = APPROVAL ( #220, 'UNSPECIFIED' ) ;
#166 = LOCAL_TIME ( 15, 34, 15.00000000000000000, #13 ) ;
#167 = ADVANCED_FACE ( 'NONE', ( #24 ), #137, .F. ) ;
#168 = EDGE_CURVE ( 'NONE', #130, #91, #84, .T. ) ;
#169 = ADVANCED_FACE ( 'NONE', ( #45 ), #79, .F. ) ;
#170 = ADVANCED_FACE ( 'NONE', ( #42 ), #76, .F. ) ;
#171 = ADVANCED_FACE ( 'NONE', ( #41 ), #68, .F. ) ;
#172 = PRODUCT_DEFINITION ( 'UNKNOWN', '', #28, #4 ) ;
#173 = ADVANCED_FACE ( 'NONE', ( #48 ), #89, .T. ) ;
#174 = EDGE_CURVE ( 'NONE', #91, #141, #65, .T. ) ;
#175 = EDGE_CURVE ( 'NONE', #133, #91, #59, .T. ) ;
#176 = EDGE_CURVE ( 'NONE', #128, #133, #55, .T. ) ;
#177 = ADVANCED_FACE ( 'NONE', ( #50 ), #58, .F. ) ;
#178 = EDGE_CURVE ( 'NONE', #131, #141, #188, .T. ) ;
#179 = APPROVAL ( #211, 'UNSPECIFIED' ) ;
#180 = EDGE_CURVE ( 'NONE', #130, #131, #189, .T. ) ;
#181 = EDGE_CURVE ( 'NONE', #129, #130, #192, .T. ) ;
#182 = EDGE_CURVE ( 'NONE', #141, #128, #195, .T. ) ;
#183 = CC_DESIGN_PERSON_AND_ORGANIZATION_ASSIGNMENT ( #207, #208, ( #185 ) ) ;
#184 = PRODUCT_RELATED_PRODUCT_CATEGORY ( 'detail', '', ( #185 ) ) ;
#185 = PRODUCT ( 'sone3D', 'sone3D', '', ( #206 ) ) ;
#186 = DIRECTION ( 'NONE',  ( -0.0000000000000000000, -0.0000000000000000000, -1.000000000000000000 ) ) ;
#187 = CARTESIAN_POINT ( 'NONE',  ( 15.00000000000000000, -2.000000000000000000, 500.0000000000000000 ) ) ;
#188 = LINE ( 'NONE', #187, #49 ) ;
#189 = LINE ( 'NONE', #190, #33 ) ;
#190 = CARTESIAN_POINT ( 'NONE',  ( -15.00000000000000000, -2.000000000000001300, 500.0000000000000000 ) ) ;
#191 = DIRECTION ( 'NONE',  ( 1.000000000000000000, 4.336808689942017700E-017, 0.0000000000000000000 ) ) ;
#192 = LINE ( 'NONE', #193, #19 ) ;
#193 = CARTESIAN_POINT ( 'NONE',  ( -15.00000000000000000, 2.000000000000001300, 500.0000000000000000 ) ) ;
#194 = DIRECTION ( 'NONE',  ( 0.0000000000000000000, -1.000000000000000000, 0.0000000000000000000 ) ) ;
#195 = LINE ( 'NONE', #196, #47 ) ;
#196 = CARTESIAN_POINT ( 'NONE',  ( 15.00000000000000000, 2.000000000000000000, -500.0000000000000000 ) ) ;
#197 = DIRECTION ( 'NONE',  ( -0.0000000000000000000, 1.000000000000000000, -0.0000000000000000000 ) ) ;
#198 =( LENGTH_UNIT ( ) NAMED_UNIT ( * ) SI_UNIT ( .MILLI., .METRE. ) );
#199 =( NAMED_UNIT ( * ) PLANE_ANGLE_UNIT ( ) SI_UNIT ( $, .RADIAN. ) );
#200 =( NAMED_UNIT ( * ) SI_UNIT ( $, .STERADIAN. ) SOLID_ANGLE_UNIT ( ) );
#201 = APPLICATION_PROTOCOL_DEFINITION ( 'international standard', 'config_control_design', 1994, #148 ) ;
#202 = CARTESIAN_POINT ( 'NONE',  ( 0.0000000000000000000, 0.0000000000000000000, 0.0000000000000000000 ) ) ;
#203 = DIRECTION ( 'NONE',  ( 0.0000000000000000000, 0.0000000000000000000, 1.000000000000000000 ) ) ;
#204 = DIRECTION ( 'NONE',  ( 1.000000000000000000, 0.0000000000000000000, 0.0000000000000000000 ) ) ;
#205 = SHAPE_DEFINITION_REPRESENTATION ( #5, #3 ) ;
#206 = MECHANICAL_CONTEXT ( 'NONE', #148, 'mechanical' ) ;
#207 = PERSON_AND_ORGANIZATION ( #1, #7 ) ;
#208 = PERSON_AND_ORGANIZATION_ROLE ( 'design_owner' ) ;
#209 = APPLICATION_PROTOCOL_DEFINITION ( 'international standard', 'config_control_design', 1994, #149 ) ;
#210 = PERSON_AND_ORGANIZATION ( #1, #7 ) ;
#211 = APPROVAL_STATUS ( 'not_yet_approved' ) ;
#212 = APPROVAL_ROLE ( '' ) ;
#213 = DATE_AND_TIME ( #12, #162 ) ;
#214 = APPROVAL_DATE_TIME ( #213, #179 ) ;
#215 = PERSON_AND_ORGANIZATION ( #1, #7 ) ;
#216 = PERSON_AND_ORGANIZATION_ROLE ( 'creator' ) ;
#217 = DATE_AND_TIME ( #40, #161 ) ;
#218 = DATE_TIME_ROLE ( 'creation_date' ) ;
#219 = PERSON_AND_ORGANIZATION ( #1, #7 ) ;
#220 = APPROVAL_STATUS ( 'not_yet_approved' ) ;
#221 = APPROVAL_ROLE ( '' ) ;
#222 = DATE_AND_TIME ( #30, #166 ) ;
#223 = APPROVAL_DATE_TIME ( #222, #165 ) ;
#224 = PERSON_AND_ORGANIZATION ( #1, #7 ) ;
#225 = PERSON_AND_ORGANIZATION_ROLE ( 'creator' ) ;
#226 = PERSON_AND_ORGANIZATION ( #1, #7 ) ;
#227 = PERSON_AND_ORGANIZATION_ROLE ( 'design_supplier' ) ;
#228 = SECURITY_CLASSIFICATION_LEVEL ( 'unclassified' ) ;
#229 = PERSON_AND_ORGANIZATION ( #1, #7 ) ;
#230 = PERSON_AND_ORGANIZATION_ROLE ( 'classification_officer' ) ;
#231 = DATE_AND_TIME ( #29, #153 ) ;
#232 = DATE_TIME_ROLE ( 'classification_date' ) ;
#233 = PERSON_AND_ORGANIZATION ( #1, #7 ) ;
#234 = APPROVAL_STATUS ( 'not_yet_approved' ) ;
#235 = APPROVAL_ROLE ( '' ) ;
#236 = DATE_AND_TIME ( #35, #150 ) ;
#237 = APPROVAL_DATE_TIME ( #236, #151 ) ;
ENDSEC;
END-ISO-10303-21;
