ISO-10303-21;
HEADER;
FILE_DESCRIPTION (( 'STEP AP203' ),
    '1' );
FILE_NAME ('sone3D.STEP',
    '2013-08-09T06:33:35',
    ( '' ),
    ( '' ),
    'SwSTEP 2.0',
    'SolidWorks 2012',
    '' );
FILE_SCHEMA (( 'CONFIG_CONTROL_DESIGN' ));
ENDSEC;

DATA;
#1 =( LENGTH_UNIT ( ) NAMED_UNIT ( * ) SI_UNIT ( .MILLI., .METRE. ) );
#2 = DIRECTION ( 'NONE',  ( 0.0000000000000000000, 0.0000000000000000000, 1.000000000000000000 ) ) ;
#3 = DIRECTION ( 'NONE',  ( 1.000000000000000000, 6.505213034913026600E-017, 0.0000000000000000000 ) ) ;
#4 = CARTESIAN_POINT ( 'NONE',  ( -10.00000000000000000, -2.000000000000001300, 500.0000000000000000 ) ) ;
#5 = LINE ( 'NONE', #4, #55 ) ;
#6 = DIRECTION ( 'NONE',  ( -0.0000000000000000000, 1.000000000000000000, -0.0000000000000000000 ) ) ;
#7 = CARTESIAN_POINT ( 'NONE',  ( 10.00000000000000000, 2.000000000000000000, -500.0000000000000000 ) ) ;
#8 = CARTESIAN_POINT ( 'NONE',  ( 10.00000000000000000, 2.000000000000000000, 500.0000000000000000 ) ) ;
#9 = DIRECTION ( 'NONE',  ( -0.0000000000000000000, -0.0000000000000000000, -1.000000000000000000 ) ) ;
#10 = LINE ( 'NONE', #8, #71 ) ;
#11 = DIRECTION ( 'NONE',  ( 0.0000000000000000000, -1.000000000000000000, 0.0000000000000000000 ) ) ;
#12 = CARTESIAN_POINT ( 'NONE',  ( -10.00000000000000000, 2.000000000000001300, 500.0000000000000000 ) ) ;
#13 = LINE ( 'NONE', #12, #73 ) ;
#14 = DIRECTION ( 'NONE',  ( -0.0000000000000000000, -0.0000000000000000000, -1.000000000000000000 ) ) ;
#15 = CARTESIAN_POINT ( 'NONE',  ( -10.00000000000000000, -2.000000000000001300, 500.0000000000000000 ) ) ;
#16 = LINE ( 'NONE', #15, #56 ) ;
#17 = DIRECTION ( 'NONE',  ( -1.000000000000000000, 0.0000000000000000000, 0.0000000000000000000 ) ) ;
#18 = CARTESIAN_POINT ( 'NONE',  ( 10.00000000000000000, 2.000000000000000000, 500.0000000000000000 ) ) ;
#19 = DIRECTION ( 'NONE',  ( -0.0000000000000000000, 1.000000000000000000, -0.0000000000000000000 ) ) ;
#20 = CARTESIAN_POINT ( 'NONE',  ( 10.00000000000000000, 2.000000000000000000, 500.0000000000000000 ) ) ;
#21 = LINE ( 'NONE', #20, #46 ) ;
#22 = DIRECTION ( 'NONE',  ( -1.000000000000000000, 6.505213034913026600E-017, -0.0000000000000000000 ) ) ;
#23 = LINE ( 'NONE', #25, #36 ) ;
#24 = LINE ( 'NONE', #7, #50 ) ;
#25 = CARTESIAN_POINT ( 'NONE',  ( -10.00000000000000000, 2.000000000000001300, 500.0000000000000000 ) ) ;
#26 = DESIGN_CONTEXT ( 'detailed design', #30, 'design' ) ;
#27 = MANIFOLD_SOLID_BREP ( 'ÎÞ½ - µoµ1', #53 ) ;
#28 = PRODUCT_DEFINITION_SHAPE ( 'NONE', 'NONE',  #211 ) ;
#29 = APPLICATION_CONTEXT ( 'configuration controlled 3d designs of mechanical parts and assemblies' ) ;
#30 = APPLICATION_CONTEXT ( 'configuration controlled 3d designs of mechanical parts and assemblies' ) ;
#31 = CC_DESIGN_APPROVAL ( #178, ( #74 ) ) ;
#32 = CALENDAR_DATE ( 2013, 9, 8 ) ;
#33 = ORGANIZATION ( 'UNSPECIFIED', 'UNSPECIFIED', '' ) ;
#34 = AXIS2_PLACEMENT_3D ( 'NONE', #223, #222, #221 ) ;
#35 = CC_DESIGN_APPROVAL ( #193, ( #211 ) ) ;
#36 = VECTOR ( 'NONE', #22, 1000.000000000000000 ) ;
#37 = COORDINATED_UNIVERSAL_TIME_OFFSET ( 9, 0, .AHEAD. ) ;
#38 = CALENDAR_DATE ( 2013, 9, 8 ) ;
#39 = AXIS2_PLACEMENT_3D ( 'NONE', #18, #17, #2 ) ;
#40 = FACE_OUTER_BOUND ( 'NONE', #118, .T. ) ;
#41 = COORDINATED_UNIVERSAL_TIME_OFFSET ( 9, 0, .AHEAD. ) ;
#42 = AXIS2_PLACEMENT_3D ( 'NONE', #127, #125, #101 ) ;
#43 = FACE_OUTER_BOUND ( 'NONE', #122, .T. ) ;
#44 = CC_DESIGN_APPROVAL ( #188, ( #63 ) ) ;
#45 = CALENDAR_DATE ( 2013, 9, 8 ) ;
#46 = VECTOR ( 'NONE', #19, 1000.000000000000000 ) ;
#47 = AXIS2_PLACEMENT_3D ( 'NONE', #98, #128, #106 ) ;
#48 = FACE_OUTER_BOUND ( 'NONE', #171, .T. ) ;
#49 = VECTOR ( 'NONE', #96, 1000.000000000000000 ) ;
#50 = VECTOR ( 'NONE', #6, 1000.000000000000000 ) ;
#51 = VECTOR ( 'NONE', #112, 1000.000000000000000 ) ;
#52 = AXIS2_PLACEMENT_3D ( 'NONE', #121, #123, #105 ) ;
#53 = CLOSED_SHELL ( 'NONE', ( #192, #198, #204, #195, #200, #194 ) ) ;
#54 = CALENDAR_DATE ( 2013, 9, 8 ) ;
#55 = VECTOR ( 'NONE', #3, 1000.000000000000000 ) ;
#56 = VECTOR ( 'NONE', #14, 1000.000000000000000 ) ;
#57 = COORDINATED_UNIVERSAL_TIME_OFFSET ( 9, 0, .AHEAD. ) ;
#58 = VECTOR ( 'NONE', #102, 1000.000000000000000 ) ;
#59 = CALENDAR_DATE ( 2013, 9, 8 ) ;
#60 = FACE_OUTER_BOUND ( 'NONE', #162, .T. ) ;
#61 = COORDINATED_UNIVERSAL_TIME_OFFSET ( 9, 0, .AHEAD. ) ;
#62 = APPROVAL_PERSON_ORGANIZATION ( #79, #188, #81 ) ;
#63 = PRODUCT_DEFINITION_FORMATION_WITH_SPECIFIED_SOURCE ( 'ANY', '', #213, .NOT_KNOWN. ) ;
#64 = FACE_OUTER_BOUND ( 'NONE', #170, .T. ) ;
#65 = APPROVAL_PERSON_ORGANIZATION ( #226, #193, #86 ) ;
#66 = FACE_OUTER_BOUND ( 'NONE', #161, .T. ) ;
#67 = COORDINATED_UNIVERSAL_TIME_OFFSET ( 9, 0, .AHEAD. ) ;
#68 = APPROVAL_PERSON_ORGANIZATION ( #233, #178, #235 ) ;
#69 = AXIS2_PLACEMENT_3D ( 'NONE', #111, #110, #117 ) ;
#70 = CC_DESIGN_SECURITY_CLASSIFICATION ( #74, ( #63 ) ) ;
#71 = VECTOR ( 'NONE', #9, 1000.000000000000000 ) ;
#72 = AXIS2_PLACEMENT_3D ( 'NONE', #103, #100, #99 ) ;
#73 = VECTOR ( 'NONE', #11, 1000.000000000000000 ) ;
#74 = SECURITY_CLASSIFICATION ( '', '', #93 ) ;
#75 = VECTOR ( 'NONE', #124, 1000.000000000000000 ) ;
#76 = VECTOR ( 'NONE', #164, 1000.000000000000000 ) ;
#77 = DATE_AND_TIME ( #38, #185 ) ;
#78 = APPROVAL_STATUS ( 'not_yet_approved' ) ;
#79 = PERSON_AND_ORGANIZATION ( #230, #33 ) ;
#80 = DATE_TIME_ROLE ( 'creation_date' ) ;
#81 = APPROVAL_ROLE ( '' ) ;
#82 = PERSON_AND_ORGANIZATION ( #230, #33 ) ;
#83 = PERSON_AND_ORGANIZATION_ROLE ( 'creator' ) ;
#84 = DATE_AND_TIME ( #32, #186 ) ;
#85 = APPROVAL_DATE_TIME ( #84, #193 ) ;
#86 = APPROVAL_ROLE ( '' ) ;
#87 = PERSON_AND_ORGANIZATION ( #230, #33 ) ;
#88 = PERSON_AND_ORGANIZATION_ROLE ( 'creator' ) ;
#89 = APPROVAL_DATE_TIME ( #91, #188 ) ;
#90 = PERSON_AND_ORGANIZATION ( #230, #33 ) ;
#91 = DATE_AND_TIME ( #59, #189 ) ;
#92 = PERSON_AND_ORGANIZATION_ROLE ( 'design_supplier' ) ;
#93 = SECURITY_CLASSIFICATION_LEVEL ( 'unclassified' ) ;
#94 = PERSON_AND_ORGANIZATION ( #230, #33 ) ;
#95 =( GEOMETRIC_REPRESENTATION_CONTEXT ( 3 ) GLOBAL_UNCERTAINTY_ASSIGNED_CONTEXT ( ( #231 ) ) GLOBAL_UNIT_ASSIGNED_CONTEXT ( ( #1, #227, #228 ) ) REPRESENTATION_CONTEXT ( 'NONE', 'WORKASPACE' ) );
#96 = DIRECTION ( 'NONE',  ( -1.000000000000000000, 6.505213034913026600E-017, -0.0000000000000000000 ) ) ;
#97 = LINE ( 'NONE', #108, #51 ) ;
#98 = CARTESIAN_POINT ( 'NONE',  ( 0.0000000000000000000, 0.0000000000000000000, 500.0000000000000000 ) ) ;
#99 = DIRECTION ( 'NONE',  ( 1.000000000000000000, -6.505213034913026600E-017, 0.0000000000000000000 ) ) ;
#100 = DIRECTION ( 'NONE',  ( -6.505213034913026600E-017, -1.000000000000000000, 0.0000000000000000000 ) ) ;
#101 = DIRECTION ( 'NONE',  ( -0.0000000000000000000, 0.0000000000000000000, -1.000000000000000000 ) ) ;
#102 = DIRECTION ( 'NONE',  ( -0.0000000000000000000, -0.0000000000000000000, -1.000000000000000000 ) ) ;
#103 = CARTESIAN_POINT ( 'NONE',  ( -10.00000000000000000, 2.000000000000001300, 500.0000000000000000 ) ) ;
#104 = CARTESIAN_POINT ( 'NONE',  ( 10.00000000000000000, -2.000000000000000000, 500.0000000000000000 ) ) ;
#105 = DIRECTION ( 'NONE',  ( 1.000000000000000000, 0.0000000000000000000, 0.0000000000000000000 ) ) ;
#106 = DIRECTION ( 'NONE',  ( 1.000000000000000000, 0.0000000000000000000, 0.0000000000000000000 ) ) ;
#107 = LINE ( 'NONE', #120, #49 ) ;
#108 = CARTESIAN_POINT ( 'NONE',  ( -10.00000000000000000, -2.000000000000001300, -500.0000000000000000 ) ) ;
#109 = PLANE ( 'NONE',  #69 ) ;
#110 = DIRECTION ( 'NONE',  ( -6.505213034913026600E-017, 1.000000000000000000, 0.0000000000000000000 ) ) ;
#111 = CARTESIAN_POINT ( 'NONE',  ( -10.00000000000000000, -2.000000000000001300, 500.0000000000000000 ) ) ;
#112 = DIRECTION ( 'NONE',  ( 1.000000000000000000, 6.505213034913026600E-017, 0.0000000000000000000 ) ) ;
#113 = LINE ( 'NONE', #104, #58 ) ;
#114 = PLANE ( 'NONE',  #39 ) ;
#115 = PLANE ( 'NONE',  #47 ) ;
#116 = CARTESIAN_POINT ( 'NONE',  ( -10.00000000000000000, -2.000000000000001300, -500.0000000000000000 ) ) ;
#117 = DIRECTION ( 'NONE',  ( -1.000000000000000000, -6.505213034913026600E-017, 0.0000000000000000000 ) ) ;
#118 = EDGE_LOOP ( 'NONE', ( #140, #138, #158, #157 ) ) ;
#119 = PLANE ( 'NONE',  #52 ) ;
#120 = CARTESIAN_POINT ( 'NONE',  ( -10.00000000000000000, 2.000000000000001300, -500.0000000000000000 ) ) ;
#121 = CARTESIAN_POINT ( 'NONE',  ( 0.0000000000000000000, 0.0000000000000000000, -500.0000000000000000 ) ) ;
#122 = EDGE_LOOP ( 'NONE', ( #147, #146, #145, #149 ) ) ;
#123 = DIRECTION ( 'NONE',  ( -0.0000000000000000000, 0.0000000000000000000, 1.000000000000000000 ) ) ;
#124 = DIRECTION ( 'NONE',  ( 0.0000000000000000000, -1.000000000000000000, 0.0000000000000000000 ) ) ;
#125 = DIRECTION ( 'NONE',  ( 1.000000000000000000, 0.0000000000000000000, -0.0000000000000000000 ) ) ;
#126 = PLANE ( 'NONE',  #72 ) ;
#127 = CARTESIAN_POINT ( 'NONE',  ( -10.00000000000000000, 2.000000000000001300, 500.0000000000000000 ) ) ;
#128 = DIRECTION ( 'NONE',  ( -0.0000000000000000000, 0.0000000000000000000, 1.000000000000000000 ) ) ;
#129 = VERTEX_POINT ( 'NONE', #116 ) ;
#130 = VERTEX_POINT ( 'NONE', #173 ) ;
#131 = VERTEX_POINT ( 'NONE', #174 ) ;
#132 = VERTEX_POINT ( 'NONE', #175 ) ;
#133 = VERTEX_POINT ( 'NONE', #176 ) ;
#134 = VERTEX_POINT ( 'NONE', #177 ) ;
#135 = VERTEX_POINT ( 'NONE', #163 ) ;
#136 = VERTEX_POINT ( 'NONE', #172 ) ;
#137 = ORIENTED_EDGE ( 'NONE', *, *, #199, .F. ) ;
#138 = ORIENTED_EDGE ( 'NONE', *, *, #205, .F. ) ;
#139 = ORIENTED_EDGE ( 'NONE', *, *, #210, .F. ) ;
#140 = ORIENTED_EDGE ( 'NONE', *, *, #191, .T. ) ;
#141 = ORIENTED_EDGE ( 'NONE', *, *, #208, .F. ) ;
#142 = ORIENTED_EDGE ( 'NONE', *, *, #197, .F. ) ;
#143 = ORIENTED_EDGE ( 'NONE', *, *, #191, .F. ) ;
#144 = ORIENTED_EDGE ( 'NONE', *, *, #201, .F. ) ;
#145 = ORIENTED_EDGE ( 'NONE', *, *, #203, .T. ) ;
#146 = ORIENTED_EDGE ( 'NONE', *, *, #210, .T. ) ;
#147 = ORIENTED_EDGE ( 'NONE', *, *, #206, .T. ) ;
#148 = ORIENTED_EDGE ( 'NONE', *, *, #207, .T. ) ;
#149 = ORIENTED_EDGE ( 'NONE', *, *, #202, .T. ) ;
#150 = ORIENTED_EDGE ( 'NONE', *, *, #190, .F. ) ;
#151 = ORIENTED_EDGE ( 'NONE', *, *, #202, .F. ) ;
#152 = ORIENTED_EDGE ( 'NONE', *, *, #197, .T. ) ;
#153 = ORIENTED_EDGE ( 'NONE', *, *, #203, .F. ) ;
#154 = ORIENTED_EDGE ( 'NONE', *, *, #207, .F. ) ;
#155 = ORIENTED_EDGE ( 'NONE', *, *, #199, .T. ) ;
#156 = ORIENTED_EDGE ( 'NONE', *, *, #201, .T. ) ;
#157 = ORIENTED_EDGE ( 'NONE', *, *, #190, .T. ) ;
#158 = ORIENTED_EDGE ( 'NONE', *, *, #206, .F. ) ;
#159 = ORIENTED_EDGE ( 'NONE', *, *, #208, .T. ) ;
#160 = ORIENTED_EDGE ( 'NONE', *, *, #205, .T. ) ;
#161 = EDGE_LOOP ( 'NONE', ( #156, #137, #139, #160 ) ) ;
#162 = EDGE_LOOP ( 'NONE', ( #159, #154, #153, #155 ) ) ;
#163 = CARTESIAN_POINT ( 'NONE',  ( 10.00000000000000000, 2.000000000000000000, 500.0000000000000000 ) ) ;
#164 = DIRECTION ( 'NONE',  ( -0.0000000000000000000, -0.0000000000000000000, -1.000000000000000000 ) ) ;
#165 = CARTESIAN_POINT ( 'NONE',  ( -10.00000000000000000, 2.000000000000001300, -500.0000000000000000 ) ) ;
#166 = LINE ( 'NONE', #165, #75 ) ;
#167 = LINE ( 'NONE', #168, #76 ) ;
#168 = CARTESIAN_POINT ( 'NONE',  ( -10.00000000000000000, 2.000000000000001300, 500.0000000000000000 ) ) ;
#169 = PLANE ( 'NONE',  #42 ) ;
#170 = EDGE_LOOP ( 'NONE', ( #152, #150, #151, #148 ) ) ;
#171 = EDGE_LOOP ( 'NONE', ( #143, #142, #141, #144 ) ) ;
#172 = CARTESIAN_POINT ( 'NONE',  ( -10.00000000000000000, -2.000000000000001300, 500.0000000000000000 ) ) ;
#173 = CARTESIAN_POINT ( 'NONE',  ( 10.00000000000000000, 2.000000000000000000, -500.0000000000000000 ) ) ;
#174 = CARTESIAN_POINT ( 'NONE',  ( 10.00000000000000000, -2.000000000000000000, 500.0000000000000000 ) ) ;
#175 = CARTESIAN_POINT ( 'NONE',  ( 10.00000000000000000, -2.000000000000000000, -500.0000000000000000 ) ) ;
#176 = CARTESIAN_POINT ( 'NONE',  ( -10.00000000000000000, 2.000000000000001300, -500.0000000000000000 ) ) ;
#177 = CARTESIAN_POINT ( 'NONE',  ( -10.00000000000000000, 2.000000000000001300, 500.0000000000000000 ) ) ;
#178 = APPROVAL ( #234, 'UNSPECIFIED' ) ;
#179 = CC_DESIGN_DATE_AND_TIME_ASSIGNMENT ( #214, #215, ( #74 ) ) ;
#180 = LOCAL_TIME ( 15, 33, 35.00000000000000000, #37 ) ;
#181 = CC_DESIGN_PERSON_AND_ORGANIZATION_ASSIGNMENT ( #94, #216, ( #74 ) ) ;
#182 = CC_DESIGN_PERSON_AND_ORGANIZATION_ASSIGNMENT ( #87, #92, ( #63 ) ) ;
#183 = CC_DESIGN_PERSON_AND_ORGANIZATION_ASSIGNMENT ( #90, #88, ( #63 ) ) ;
#184 = CC_DESIGN_PERSON_AND_ORGANIZATION_ASSIGNMENT ( #82, #83, ( #211 ) ) ;
#185 = LOCAL_TIME ( 15, 33, 35.00000000000000000, #41 ) ;
#186 = LOCAL_TIME ( 15, 33, 35.00000000000000000, #57 ) ;
#187 = CC_DESIGN_DATE_AND_TIME_ASSIGNMENT ( #77, #80, ( #211 ) ) ;
#188 = APPROVAL ( #78, 'UNSPECIFIED' ) ;
#189 = LOCAL_TIME ( 15, 33, 35.00000000000000000, #61 ) ;
#190 = EDGE_CURVE ( 'NONE', #134, #133, #167, .T. ) ;
#191 = EDGE_CURVE ( 'NONE', #133, #129, #166, .T. ) ;
#192 = ADVANCED_FACE ( 'NONE', ( #40 ), #169, .F. ) ;
#193 = APPROVAL ( #225, 'UNSPECIFIED' ) ;
#194 = ADVANCED_FACE ( 'NONE', ( #48 ), #119, .F. ) ;
#195 = ADVANCED_FACE ( 'NONE', ( #64 ), #126, .F. ) ;
#196 = CC_DESIGN_PERSON_AND_ORGANIZATION_ASSIGNMENT ( #218, #217, ( #213 ) ) ;
#197 = EDGE_CURVE ( 'NONE', #130, #133, #107, .T. ) ;
#198 = ADVANCED_FACE ( 'NONE', ( #66 ), #109, .F. ) ;
#199 = EDGE_CURVE ( 'NONE', #131, #132, #113, .T. ) ;
#200 = ADVANCED_FACE ( 'NONE', ( #43 ), #115, .T. ) ;
#201 = EDGE_CURVE ( 'NONE', #129, #132, #97, .T. ) ;
#202 = EDGE_CURVE ( 'NONE', #135, #134, #23, .T. ) ;
#203 = EDGE_CURVE ( 'NONE', #131, #135, #21, .T. ) ;
#204 = ADVANCED_FACE ( 'NONE', ( #60 ), #114, .F. ) ;
#205 = EDGE_CURVE ( 'NONE', #136, #129, #16, .T. ) ;
#206 = EDGE_CURVE ( 'NONE', #134, #136, #13, .T. ) ;
#207 = EDGE_CURVE ( 'NONE', #135, #130, #10, .T. ) ;
#208 = EDGE_CURVE ( 'NONE', #132, #130, #24, .T. ) ;
#209 = LOCAL_TIME ( 15, 33, 35.00000000000000000, #67 ) ;
#210 = EDGE_CURVE ( 'NONE', #136, #131, #5, .T. ) ;
#211 = PRODUCT_DEFINITION ( 'UNKNOWN', '', #63, #26 ) ;
#212 = PRODUCT_RELATED_PRODUCT_CATEGORY ( 'detail', '', ( #213 ) ) ;
#213 = PRODUCT ( 'sone3D', 'sone3D', '', ( #219 ) ) ;
#214 = DATE_AND_TIME ( #45, #180 ) ;
#215 = DATE_TIME_ROLE ( 'classification_date' ) ;
#216 = PERSON_AND_ORGANIZATION_ROLE ( 'classification_officer' ) ;
#217 = PERSON_AND_ORGANIZATION_ROLE ( 'design_owner' ) ;
#218 = PERSON_AND_ORGANIZATION ( #230, #33 ) ;
#219 = MECHANICAL_CONTEXT ( 'NONE', #29, 'mechanical' ) ;
#220 = SHAPE_DEFINITION_REPRESENTATION ( #28, #232 ) ;
#221 = DIRECTION ( 'NONE',  ( 1.000000000000000000, 0.0000000000000000000, 0.0000000000000000000 ) ) ;
#222 = DIRECTION ( 'NONE',  ( 0.0000000000000000000, 0.0000000000000000000, 1.000000000000000000 ) ) ;
#223 = CARTESIAN_POINT ( 'NONE',  ( 0.0000000000000000000, 0.0000000000000000000, 0.0000000000000000000 ) ) ;
#224 = APPLICATION_PROTOCOL_DEFINITION ( 'international standard', 'config_control_design', 1994, #30 ) ;
#225 = APPROVAL_STATUS ( 'not_yet_approved' ) ;
#226 = PERSON_AND_ORGANIZATION ( #230, #33 ) ;
#227 =( NAMED_UNIT ( * ) PLANE_ANGLE_UNIT ( ) SI_UNIT ( $, .RADIAN. ) );
#228 =( NAMED_UNIT ( * ) SI_UNIT ( $, .STERADIAN. ) SOLID_ANGLE_UNIT ( ) );
#229 = APPLICATION_PROTOCOL_DEFINITION ( 'international standard', 'config_control_design', 1994, #29 ) ;
#230 = PERSON ( 'UNSPECIFIED', 'UNSPECIFIED', 'UNSPECIFIED', ('UNSPECIFIED'), ('UNSPECIFIED'), ('UNSPECIFIED') ) ;
#231 = UNCERTAINTY_MEASURE_WITH_UNIT (LENGTH_MEASURE( 1.000000000000000100E-005 ), #1, 'distance_accuracy_value', 'NONE');
#232 = ADVANCED_BREP_SHAPE_REPRESENTATION ( 'sone3D', ( #27, #34 ), #95 ) ;
#233 = PERSON_AND_ORGANIZATION ( #230, #33 ) ;
#234 = APPROVAL_STATUS ( 'not_yet_approved' ) ;
#235 = APPROVAL_ROLE ( '' ) ;
#236 = DATE_AND_TIME ( #54, #209 ) ;
#237 = APPROVAL_DATE_TIME ( #236, #178 ) ;
ENDSEC;
END-ISO-10303-21;
