ISO-10303-21;
HEADER;
FILE_DESCRIPTION (( 'STEP AP203' ),
    '1' );
FILE_NAME ('sone3D.STEP',
    '2013-08-09T06:33:12',
    ( '' ),
    ( '' ),
    'SwSTEP 2.0',
    'SolidWorks 2012',
    '' );
FILE_SCHEMA (( 'CONFIG_CONTROL_DESIGN' ));
ENDSEC;

DATA;
#1 = PLANE ( 'NONE',  #81 ) ;
#2 = MECHANICAL_CONTEXT ( 'NONE', #201, 'mechanical' ) ;
#3 = SHAPE_DEFINITION_REPRESENTATION ( #55, #198 ) ;
#4 = DIRECTION ( 'NONE',  ( 1.000000000000000000, 0.0000000000000000000, 0.0000000000000000000 ) ) ;
#5 = DIRECTION ( 'NONE',  ( 0.0000000000000000000, 0.0000000000000000000, 1.000000000000000000 ) ) ;
#6 = CARTESIAN_POINT ( 'NONE',  ( 0.0000000000000000000, 0.0000000000000000000, 0.0000000000000000000 ) ) ;
#7 = APPLICATION_PROTOCOL_DEFINITION ( 'international standard', 'config_control_design', 1994, #201 ) ;
#8 = CARTESIAN_POINT ( 'NONE',  ( -20.00000000000000000, -1.500000000000002400, -500.0000000000000000 ) ) ;
#9 = DIRECTION ( 'NONE',  ( 1.000000000000000000, 5.963111948670274400E-017, 0.0000000000000000000 ) ) ;
#10 =( NAMED_UNIT ( * ) SI_UNIT ( $, .STERADIAN. ) SOLID_ANGLE_UNIT ( ) );
#11 = PERSON_AND_ORGANIZATION ( #197, #64 ) ;
#12 = PERSON_AND_ORGANIZATION_ROLE ( 'creator' ) ;
#13 = PERSON_AND_ORGANIZATION ( #197, #64 ) ;
#14 = APPROVAL_DATE_TIME ( #15, #214 ) ;
#15 = DATE_AND_TIME ( #75, #216 ) ;
#16 = APPROVAL_ROLE ( '' ) ;
#17 = APPROVAL_STATUS ( 'not_yet_approved' ) ;
#18 = PERSON_AND_ORGANIZATION ( #197, #64 ) ;
#19 = DATE_TIME_ROLE ( 'creation_date' ) ;
#20 = DATE_AND_TIME ( #68, #210 ) ;
#21 = PERSON_AND_ORGANIZATION_ROLE ( 'creator' ) ;
#22 = PERSON_AND_ORGANIZATION ( #197, #64 ) ;
#23 = APPROVAL_DATE_TIME ( #24, #209 ) ;
#24 = DATE_AND_TIME ( #90, #211 ) ;
#25 = APPROVAL_ROLE ( '' ) ;
#26 = APPROVAL_STATUS ( 'not_yet_approved' ) ;
#27 = PERSON_AND_ORGANIZATION ( #197, #64 ) ;
#28 = APPLICATION_PROTOCOL_DEFINITION ( 'international standard', 'config_control_design', 1994, #200 ) ;
#29 = PERSON_AND_ORGANIZATION_ROLE ( 'design_owner' ) ;
#30 =( LENGTH_UNIT ( ) NAMED_UNIT ( * ) SI_UNIT ( .MILLI., .METRE. ) );
#31 = DIRECTION ( 'NONE',  ( -0.0000000000000000000, 1.000000000000000000, -0.0000000000000000000 ) ) ;
#32 = CARTESIAN_POINT ( 'NONE',  ( 20.00000000000000000, 1.500000000000000000, -500.0000000000000000 ) ) ;
#33 = LINE ( 'NONE', #32, #69 ) ;
#34 = DIRECTION ( 'NONE',  ( 0.0000000000000000000, -1.000000000000000000, 0.0000000000000000000 ) ) ;
#35 = CARTESIAN_POINT ( 'NONE',  ( -20.00000000000000000, 1.500000000000002400, 500.0000000000000000 ) ) ;
#36 = LINE ( 'NONE', #35, #83 ) ;
#37 = DIRECTION ( 'NONE',  ( 1.000000000000000000, 5.963111948670274400E-017, 0.0000000000000000000 ) ) ;
#38 = CARTESIAN_POINT ( 'NONE',  ( -20.00000000000000000, -1.500000000000002400, 500.0000000000000000 ) ) ;
#39 = LINE ( 'NONE', #38, #86 ) ;
#40 = DIRECTION ( 'NONE',  ( -0.0000000000000000000, -0.0000000000000000000, -1.000000000000000000 ) ) ;
#41 = CARTESIAN_POINT ( 'NONE',  ( 20.00000000000000000, -1.500000000000000000, 500.0000000000000000 ) ) ;
#42 = LINE ( 'NONE', #41, #93 ) ;
#43 = DIRECTION ( 'NONE',  ( 1.000000000000000000, 0.0000000000000000000, 0.0000000000000000000 ) ) ;
#44 = DIRECTION ( 'NONE',  ( -0.0000000000000000000, 0.0000000000000000000, 1.000000000000000000 ) ) ;
#45 = CARTESIAN_POINT ( 'NONE',  ( 0.0000000000000000000, 0.0000000000000000000, 500.0000000000000000 ) ) ;
#46 = CARTESIAN_POINT ( 'NONE',  ( -20.00000000000000000, 1.500000000000002400, -500.0000000000000000 ) ) ;
#47 = LINE ( 'NONE', #46, #72 ) ;
#48 = DIRECTION ( 'NONE',  ( -1.000000000000000000, 5.963111948670274400E-017, -0.0000000000000000000 ) ) ;
#49 = DIRECTION ( 'NONE',  ( 0.0000000000000000000, -1.000000000000000000, 0.0000000000000000000 ) ) ;
#50 = LINE ( 'NONE', #51, #73 ) ;
#51 = CARTESIAN_POINT ( 'NONE',  ( -20.00000000000000000, 1.500000000000002400, -500.0000000000000000 ) ) ;
#52 =( NAMED_UNIT ( * ) PLANE_ANGLE_UNIT ( ) SI_UNIT ( $, .RADIAN. ) );
#53 = PERSON_AND_ORGANIZATION ( #197, #64 ) ;
#54 = DESIGN_CONTEXT ( 'detailed design', #200, 'design' ) ;
#55 = PRODUCT_DEFINITION_SHAPE ( 'NONE', 'NONE',  #235 ) ;
#56 = MANIFOLD_SOLID_BREP ( 'ÎÞ½ - µoµ1', #95 ) ;
#57 = FACE_OUTER_BOUND ( 'NONE', #173, .T. ) ;
#58 = SECURITY_CLASSIFICATION ( '', '', #113 ) ;
#59 = FACE_OUTER_BOUND ( 'NONE', #175, .T. ) ;
#60 = APPROVAL_PERSON_ORGANIZATION ( #27, #209, #25 ) ;
#61 = FACE_OUTER_BOUND ( 'NONE', #176, .T. ) ;
#62 = CALENDAR_DATE ( 2013, 9, 8 ) ;
#63 = AXIS2_PLACEMENT_3D ( 'NONE', #143, #146, #144 ) ;
#64 = ORGANIZATION ( 'UNSPECIFIED', 'UNSPECIFIED', '' ) ;
#65 = CC_DESIGN_APPROVAL ( #202, ( #58 ) ) ;
#66 = COORDINATED_UNIVERSAL_TIME_OFFSET ( 9, 0, .AHEAD. ) ;
#67 = CC_DESIGN_APPROVAL ( #209, ( #235 ) ) ;
#68 = CALENDAR_DATE ( 2013, 9, 8 ) ;
#69 = VECTOR ( 'NONE', #31, 1000.000000000000000 ) ;
#70 = APPROVAL_PERSON_ORGANIZATION ( #18, #214, #16 ) ;
#71 = COORDINATED_UNIVERSAL_TIME_OFFSET ( 9, 0, .AHEAD. ) ;
#72 = VECTOR ( 'NONE', #48, 1000.000000000000000 ) ;
#73 = VECTOR ( 'NONE', #49, 1000.000000000000000 ) ;
#74 = COORDINATED_UNIVERSAL_TIME_OFFSET ( 9, 0, .AHEAD. ) ;
#75 = CALENDAR_DATE ( 2013, 9, 8 ) ;
#76 = FACE_OUTER_BOUND ( 'NONE', #177, .T. ) ;
#77 = AXIS2_PLACEMENT_3D ( 'NONE', #120, #122, #125 ) ;
#78 = CC_DESIGN_APPROVAL ( #214, ( #88 ) ) ;
#79 = AXIS2_PLACEMENT_3D ( 'NONE', #128, #136, #134 ) ;
#80 = VECTOR ( 'NONE', #9, 1000.000000000000000 ) ;
#81 = AXIS2_PLACEMENT_3D ( 'NONE', #45, #44, #43 ) ;
#82 = AXIS2_PLACEMENT_3D ( 'NONE', #6, #5, #4 ) ;
#83 = VECTOR ( 'NONE', #34, 1000.000000000000000 ) ;
#84 = COORDINATED_UNIVERSAL_TIME_OFFSET ( 9, 0, .AHEAD. ) ;
#85 = FACE_OUTER_BOUND ( 'NONE', #172, .T. ) ;
#86 = VECTOR ( 'NONE', #37, 1000.000000000000000 ) ;
#87 = AXIS2_PLACEMENT_3D ( 'NONE', #137, #124, #141 ) ;
#88 = PRODUCT_DEFINITION_FORMATION_WITH_SPECIFIED_SOURCE ( 'ANY', '', #237, .NOT_KNOWN. ) ;
#89 = VECTOR ( 'NONE', #117, 1000.000000000000000 ) ;
#90 = CALENDAR_DATE ( 2013, 9, 8 ) ;
#91 = CC_DESIGN_SECURITY_CLASSIFICATION ( #58, ( #88 ) ) ;
#92 = APPROVAL_PERSON_ORGANIZATION ( #108, #202, #106 ) ;
#93 = VECTOR ( 'NONE', #40, 1000.000000000000000 ) ;
#94 = AXIS2_PLACEMENT_3D ( 'NONE', #130, #129, #115 ) ;
#95 = CLOSED_SHELL ( 'NONE', ( #218, #217, #224, #220, #228, #223 ) ) ;
#96 = VECTOR ( 'NONE', #184, 1000.000000000000000 ) ;
#97 = FACE_OUTER_BOUND ( 'NONE', #174, .T. ) ;
#98 = CALENDAR_DATE ( 2013, 9, 8 ) ;
#99 = COORDINATED_UNIVERSAL_TIME_OFFSET ( 9, 0, .AHEAD. ) ;
#100 = VECTOR ( 'NONE', #123, 1000.000000000000000 ) ;
#101 = VECTOR ( 'NONE', #135, 1000.000000000000000 ) ;
#102 = VECTOR ( 'NONE', #185, 1000.000000000000000 ) ;
#103 = PERSON_AND_ORGANIZATION_ROLE ( 'design_supplier' ) ;
#104 = APPROVAL_DATE_TIME ( #105, #202 ) ;
#105 = DATE_AND_TIME ( #62, #234 ) ;
#106 = APPROVAL_ROLE ( '' ) ;
#107 = APPROVAL_STATUS ( 'not_yet_approved' ) ;
#108 = PERSON_AND_ORGANIZATION ( #197, #64 ) ;
#109 = DATE_TIME_ROLE ( 'classification_date' ) ;
#110 = DATE_AND_TIME ( #98, #204 ) ;
#111 = PERSON_AND_ORGANIZATION_ROLE ( 'classification_officer' ) ;
#112 = PERSON_AND_ORGANIZATION ( #197, #64 ) ;
#113 = SECURITY_CLASSIFICATION_LEVEL ( 'unclassified' ) ;
#114 =( GEOMETRIC_REPRESENTATION_CONTEXT ( 3 ) GLOBAL_UNCERTAINTY_ASSIGNED_CONTEXT ( ( #199 ) ) GLOBAL_UNIT_ASSIGNED_CONTEXT ( ( #30, #52, #10 ) ) REPRESENTATION_CONTEXT ( 'NONE', 'WORKASPACE' ) );
#115 = DIRECTION ( 'NONE',  ( 1.000000000000000000, -5.963111948670274400E-017, 0.0000000000000000000 ) ) ;
#116 = CARTESIAN_POINT ( 'NONE',  ( -20.00000000000000000, 1.500000000000002400, 500.0000000000000000 ) ) ;
#117 = DIRECTION ( 'NONE',  ( -1.000000000000000000, 5.963111948670274400E-017, -0.0000000000000000000 ) ) ;
#118 = CARTESIAN_POINT ( 'NONE',  ( 20.00000000000000000, 1.500000000000000000, 500.0000000000000000 ) ) ;
#119 = LINE ( 'NONE', #118, #100 ) ;
#120 = CARTESIAN_POINT ( 'NONE',  ( 20.00000000000000000, 1.500000000000000000, 500.0000000000000000 ) ) ;
#121 = LINE ( 'NONE', #116, #89 ) ;
#122 = DIRECTION ( 'NONE',  ( -1.000000000000000000, 0.0000000000000000000, 0.0000000000000000000 ) ) ;
#123 = DIRECTION ( 'NONE',  ( -0.0000000000000000000, -0.0000000000000000000, -1.000000000000000000 ) ) ;
#124 = DIRECTION ( 'NONE',  ( -0.0000000000000000000, 0.0000000000000000000, 1.000000000000000000 ) ) ;
#125 = DIRECTION ( 'NONE',  ( 0.0000000000000000000, 0.0000000000000000000, 1.000000000000000000 ) ) ;
#126 = LINE ( 'NONE', #8, #80 ) ;
#127 = CARTESIAN_POINT ( 'NONE',  ( -20.00000000000000000, 1.500000000000002400, -500.0000000000000000 ) ) ;
#128 = CARTESIAN_POINT ( 'NONE',  ( -20.00000000000000000, 1.500000000000002400, 500.0000000000000000 ) ) ;
#129 = DIRECTION ( 'NONE',  ( -5.963111948670274400E-017, -1.000000000000000000, 0.0000000000000000000 ) ) ;
#130 = CARTESIAN_POINT ( 'NONE',  ( -20.00000000000000000, 1.500000000000002400, 500.0000000000000000 ) ) ;
#131 = PLANE ( 'NONE',  #94 ) ;
#132 = LINE ( 'NONE', #145, #101 ) ;
#133 = PLANE ( 'NONE',  #79 ) ;
#134 = DIRECTION ( 'NONE',  ( -0.0000000000000000000, 0.0000000000000000000, -1.000000000000000000 ) ) ;
#135 = DIRECTION ( 'NONE',  ( -0.0000000000000000000, -0.0000000000000000000, -1.000000000000000000 ) ) ;
#136 = DIRECTION ( 'NONE',  ( 1.000000000000000000, 0.0000000000000000000, -0.0000000000000000000 ) ) ;
#137 = CARTESIAN_POINT ( 'NONE',  ( 0.0000000000000000000, 0.0000000000000000000, -500.0000000000000000 ) ) ;
#138 = PLANE ( 'NONE',  #77 ) ;
#139 = VERTEX_POINT ( 'NONE', #191 ) ;
#140 = PLANE ( 'NONE',  #87 ) ;
#141 = DIRECTION ( 'NONE',  ( 1.000000000000000000, 0.0000000000000000000, 0.0000000000000000000 ) ) ;
#142 = CARTESIAN_POINT ( 'NONE',  ( 20.00000000000000000, -1.500000000000000000, -500.0000000000000000 ) ) ;
#143 = CARTESIAN_POINT ( 'NONE',  ( -20.00000000000000000, -1.500000000000002400, 500.0000000000000000 ) ) ;
#144 = DIRECTION ( 'NONE',  ( -1.000000000000000000, -5.963111948670274400E-017, 0.0000000000000000000 ) ) ;
#145 = CARTESIAN_POINT ( 'NONE',  ( -20.00000000000000000, -1.500000000000002400, 500.0000000000000000 ) ) ;
#146 = DIRECTION ( 'NONE',  ( -5.963111948670274400E-017, 1.000000000000000000, 0.0000000000000000000 ) ) ;
#147 = VERTEX_POINT ( 'NONE', #127 ) ;
#148 = ORIENTED_EDGE ( 'NONE', *, *, #230, .F. ) ;
#149 = ORIENTED_EDGE ( 'NONE', *, *, #219, .F. ) ;
#150 = ORIENTED_EDGE ( 'NONE', *, *, #229, .F. ) ;
#151 = ORIENTED_EDGE ( 'NONE', *, *, #226, .T. ) ;
#152 = ORIENTED_EDGE ( 'NONE', *, *, #232, .F. ) ;
#153 = ORIENTED_EDGE ( 'NONE', *, *, #227, .F. ) ;
#154 = ORIENTED_EDGE ( 'NONE', *, *, #226, .F. ) ;
#155 = ORIENTED_EDGE ( 'NONE', *, *, #225, .F. ) ;
#156 = ORIENTED_EDGE ( 'NONE', *, *, #213, .T. ) ;
#157 = ORIENTED_EDGE ( 'NONE', *, *, #230, .T. ) ;
#158 = ORIENTED_EDGE ( 'NONE', *, *, #231, .T. ) ;
#159 = ORIENTED_EDGE ( 'NONE', *, *, #222, .T. ) ;
#160 = ORIENTED_EDGE ( 'NONE', *, *, #221, .T. ) ;
#161 = ORIENTED_EDGE ( 'NONE', *, *, #215, .F. ) ;
#162 = ORIENTED_EDGE ( 'NONE', *, *, #221, .F. ) ;
#163 = ORIENTED_EDGE ( 'NONE', *, *, #227, .T. ) ;
#164 = ORIENTED_EDGE ( 'NONE', *, *, #213, .F. ) ;
#165 = ORIENTED_EDGE ( 'NONE', *, *, #222, .F. ) ;
#166 = ORIENTED_EDGE ( 'NONE', *, *, #229, .T. ) ;
#167 = ORIENTED_EDGE ( 'NONE', *, *, #225, .T. ) ;
#168 = ORIENTED_EDGE ( 'NONE', *, *, #215, .T. ) ;
#169 = ORIENTED_EDGE ( 'NONE', *, *, #232, .T. ) ;
#170 = ORIENTED_EDGE ( 'NONE', *, *, #219, .T. ) ;
#171 = ORIENTED_EDGE ( 'NONE', *, *, #231, .F. ) ;
#172 = EDGE_LOOP ( 'NONE', ( #167, #150, #148, #170 ) ) ;
#173 = EDGE_LOOP ( 'NONE', ( #169, #165, #164, #166 ) ) ;
#174 = EDGE_LOOP ( 'NONE', ( #151, #149, #171, #168 ) ) ;
#175 = EDGE_LOOP ( 'NONE', ( #163, #161, #162, #159 ) ) ;
#176 = EDGE_LOOP ( 'NONE', ( #158, #157, #156, #160 ) ) ;
#177 = EDGE_LOOP ( 'NONE', ( #154, #153, #152, #155 ) ) ;
#178 = VERTEX_POINT ( 'NONE', #142 ) ;
#179 = VERTEX_POINT ( 'NONE', #193 ) ;
#180 = VERTEX_POINT ( 'NONE', #194 ) ;
#181 = VERTEX_POINT ( 'NONE', #195 ) ;
#182 = VERTEX_POINT ( 'NONE', #196 ) ;
#183 = CARTESIAN_POINT ( 'NONE',  ( -20.00000000000000000, 1.500000000000002400, 500.0000000000000000 ) ) ;
#184 = DIRECTION ( 'NONE',  ( -0.0000000000000000000, -0.0000000000000000000, -1.000000000000000000 ) ) ;
#185 = DIRECTION ( 'NONE',  ( -0.0000000000000000000, 1.000000000000000000, -0.0000000000000000000 ) ) ;
#186 = PLANE ( 'NONE',  #63 ) ;
#187 = CARTESIAN_POINT ( 'NONE',  ( 20.00000000000000000, 1.500000000000000000, 500.0000000000000000 ) ) ;
#188 = LINE ( 'NONE', #189, #96 ) ;
#189 = CARTESIAN_POINT ( 'NONE',  ( -20.00000000000000000, 1.500000000000002400, 500.0000000000000000 ) ) ;
#190 = VERTEX_POINT ( 'NONE', #183 ) ;
#191 = CARTESIAN_POINT ( 'NONE',  ( 20.00000000000000000, 1.500000000000000000, -500.0000000000000000 ) ) ;
#192 = LINE ( 'NONE', #187, #102 ) ;
#193 = CARTESIAN_POINT ( 'NONE',  ( 20.00000000000000000, -1.500000000000000000, 500.0000000000000000 ) ) ;
#194 = CARTESIAN_POINT ( 'NONE',  ( -20.00000000000000000, -1.500000000000002400, 500.0000000000000000 ) ) ;
#195 = CARTESIAN_POINT ( 'NONE',  ( -20.00000000000000000, -1.500000000000002400, -500.0000000000000000 ) ) ;
#196 = CARTESIAN_POINT ( 'NONE',  ( 20.00000000000000000, 1.500000000000000000, 500.0000000000000000 ) ) ;
#197 = PERSON ( 'UNSPECIFIED', 'UNSPECIFIED', 'UNSPECIFIED', ('UNSPECIFIED'), ('UNSPECIFIED'), ('UNSPECIFIED') ) ;
#198 = ADVANCED_BREP_SHAPE_REPRESENTATION ( 'sone3D', ( #56, #82 ), #114 ) ;
#199 = UNCERTAINTY_MEASURE_WITH_UNIT (LENGTH_MEASURE( 1.000000000000000100E-005 ), #30, 'distance_accuracy_value', 'NONE');
#200 = APPLICATION_CONTEXT ( 'configuration controlled 3d designs of mechanical parts and assemblies' ) ;
#201 = APPLICATION_CONTEXT ( 'configuration controlled 3d designs of mechanical parts and assemblies' ) ;
#202 = APPROVAL ( #107, 'UNSPECIFIED' ) ;
#203 = CC_DESIGN_DATE_AND_TIME_ASSIGNMENT ( #110, #109, ( #58 ) ) ;
#204 = LOCAL_TIME ( 15, 33, 12.00000000000000000, #66 ) ;
#205 = CC_DESIGN_PERSON_AND_ORGANIZATION_ASSIGNMENT ( #112, #111, ( #58 ) ) ;
#206 = CC_DESIGN_PERSON_AND_ORGANIZATION_ASSIGNMENT ( #11, #103, ( #88 ) ) ;
#207 = CC_DESIGN_PERSON_AND_ORGANIZATION_ASSIGNMENT ( #13, #12, ( #88 ) ) ;
#208 = CC_DESIGN_PERSON_AND_ORGANIZATION_ASSIGNMENT ( #22, #21, ( #235 ) ) ;
#209 = APPROVAL ( #26, 'UNSPECIFIED' ) ;
#210 = LOCAL_TIME ( 15, 33, 12.00000000000000000, #84 ) ;
#211 = LOCAL_TIME ( 15, 33, 12.00000000000000000, #99 ) ;
#212 = CC_DESIGN_DATE_AND_TIME_ASSIGNMENT ( #20, #19, ( #235 ) ) ;
#213 = EDGE_CURVE ( 'NONE', #179, #182, #192, .T. ) ;
#214 = APPROVAL ( #17, 'UNSPECIFIED' ) ;
#215 = EDGE_CURVE ( 'NONE', #190, #147, #188, .T. ) ;
#216 = LOCAL_TIME ( 15, 33, 12.00000000000000000, #71 ) ;
#217 = ADVANCED_FACE ( 'NONE', ( #85 ), #186, .F. ) ;
#218 = ADVANCED_FACE ( 'NONE', ( #97 ), #133, .F. ) ;
#219 = EDGE_CURVE ( 'NONE', #180, #181, #132, .T. ) ;
#220 = ADVANCED_FACE ( 'NONE', ( #59 ), #131, .F. ) ;
#221 = EDGE_CURVE ( 'NONE', #182, #190, #121, .T. ) ;
#222 = EDGE_CURVE ( 'NONE', #182, #139, #119, .T. ) ;
#223 = ADVANCED_FACE ( 'NONE', ( #76 ), #140, .F. ) ;
#224 = ADVANCED_FACE ( 'NONE', ( #57 ), #138, .F. ) ;
#225 = EDGE_CURVE ( 'NONE', #181, #178, #126, .T. ) ;
#226 = EDGE_CURVE ( 'NONE', #147, #181, #50, .T. ) ;
#227 = EDGE_CURVE ( 'NONE', #139, #147, #47, .T. ) ;
#228 = ADVANCED_FACE ( 'NONE', ( #61 ), #1, .T. ) ;
#229 = EDGE_CURVE ( 'NONE', #179, #178, #42, .T. ) ;
#230 = EDGE_CURVE ( 'NONE', #180, #179, #39, .T. ) ;
#231 = EDGE_CURVE ( 'NONE', #190, #180, #36, .T. ) ;
#232 = EDGE_CURVE ( 'NONE', #178, #139, #33, .T. ) ;
#233 = CC_DESIGN_PERSON_AND_ORGANIZATION_ASSIGNMENT ( #53, #29, ( #237 ) ) ;
#234 = LOCAL_TIME ( 15, 33, 12.00000000000000000, #74 ) ;
#235 = PRODUCT_DEFINITION ( 'UNKNOWN', '', #88, #54 ) ;
#236 = PRODUCT_RELATED_PRODUCT_CATEGORY ( 'detail', '', ( #237 ) ) ;
#237 = PRODUCT ( 'sone3D', 'sone3D', '', ( #2 ) ) ;
ENDSEC;
END-ISO-10303-21;
