ISO-10303-21;
HEADER;
FILE_DESCRIPTION (( 'STEP AP203' ),
    '1' );
FILE_NAME ('sone3D.STEP',
    '2013-08-09T06:32:47',
    ( '' ),
    ( '' ),
    'SwSTEP 2.0',
    'SolidWorks 2012',
    '' );
FILE_SCHEMA (( 'CONFIG_CONTROL_DESIGN' ));
ENDSEC;

DATA;
#1 = APPLICATION_PROTOCOL_DEFINITION ( 'international standard', 'config_control_design', 1994, #237 ) ;
#2 = CARTESIAN_POINT ( 'NONE',  ( 0.0000000000000000000, 0.0000000000000000000, 0.0000000000000000000 ) ) ;
#3 =( LENGTH_UNIT ( ) NAMED_UNIT ( * ) SI_UNIT ( .MILLI., .METRE. ) );
#4 = DIRECTION ( 'NONE',  ( 1.000000000000000000, 0.0000000000000000000, 0.0000000000000000000 ) ) ;
#5 = SHAPE_DEFINITION_REPRESENTATION ( #41, #197 ) ;
#6 = MECHANICAL_CONTEXT ( 'NONE', #237, 'mechanical' ) ;
#7 = PERSON_AND_ORGANIZATION_ROLE ( 'design_owner' ) ;
#8 = PERSON_AND_ORGANIZATION ( #199, #68 ) ;
#9 = PERSON_AND_ORGANIZATION ( #199, #68 ) ;
#10 = APPLICATION_PROTOCOL_DEFINITION ( 'international standard', 'config_control_design', 1994, #236 ) ;
#11 = APPROVAL_STATUS ( 'not_yet_approved' ) ;
#12 =( NAMED_UNIT ( * ) PLANE_ANGLE_UNIT ( ) SI_UNIT ( $, .RADIAN. ) );
#13 =( NAMED_UNIT ( * ) SI_UNIT ( $, .STERADIAN. ) SOLID_ANGLE_UNIT ( ) );
#14 = DIRECTION ( 'NONE',  ( 0.0000000000000000000, 0.0000000000000000000, 1.000000000000000000 ) ) ;
#15 = APPROVAL_ROLE ( '' ) ;
#16 = APPROVAL_DATE_TIME ( #17, #230 ) ;
#17 = DATE_AND_TIME ( #79, #208 ) ;
#18 = APPROVAL_DATE_TIME ( #19, #200 ) ;
#19 = DATE_AND_TIME ( #52, #212 ) ;
#20 = APPROVAL_ROLE ( '' ) ;
#21 = APPROVAL_STATUS ( 'not_yet_approved' ) ;
#22 = PERSON_AND_ORGANIZATION ( #199, #68 ) ;
#23 = DATE_TIME_ROLE ( 'classification_date' ) ;
#24 = DATE_AND_TIME ( #47, #202 ) ;
#25 = PERSON_AND_ORGANIZATION_ROLE ( 'classification_officer' ) ;
#26 = PERSON_AND_ORGANIZATION ( #199, #68 ) ;
#27 = SECURITY_CLASSIFICATION_LEVEL ( 'unclassified' ) ;
#28 = PERSON_AND_ORGANIZATION_ROLE ( 'design_supplier' ) ;
#29 = PERSON_AND_ORGANIZATION ( #199, #68 ) ;
#30 = PERSON_AND_ORGANIZATION_ROLE ( 'creator' ) ;
#31 = PERSON_AND_ORGANIZATION ( #199, #68 ) ;
#32 = APPROVAL_DATE_TIME ( #33, #210 ) ;
#33 = DATE_AND_TIME ( #82, #211 ) ;
#34 = APPROVAL_ROLE ( '' ) ;
#35 = APPROVAL_STATUS ( 'not_yet_approved' ) ;
#36 = PERSON_AND_ORGANIZATION ( #199, #68 ) ;
#37 = DATE_TIME_ROLE ( 'creation_date' ) ;
#38 = DATE_AND_TIME ( #74, #207 ) ;
#39 = PERSON_AND_ORGANIZATION_ROLE ( 'creator' ) ;
#40 = PERSON_AND_ORGANIZATION ( #199, #68 ) ;
#41 = PRODUCT_DEFINITION_SHAPE ( 'NONE', 'NONE',  #233 ) ;
#42 = DESIGN_CONTEXT ( 'detailed design', #236, 'design' ) ;
#43 = MANIFOLD_SOLID_BREP ( 'ÎÞ½ - µoµ1', #51 ) ;
#44 = CC_DESIGN_APPROVAL ( #230, ( #233 ) ) ;
#45 = VECTOR ( 'NONE', #123, 1000.000000000000000 ) ;
#46 = FACE_OUTER_BOUND ( 'NONE', #171, .T. ) ;
#47 = CALENDAR_DATE ( 2013, 9, 8 ) ;
#48 = COORDINATED_UNIVERSAL_TIME_OFFSET ( 9, 0, .AHEAD. ) ;
#49 = VECTOR ( 'NONE', #121, 1000.000000000000000 ) ;
#50 = SECURITY_CLASSIFICATION ( '', '', #27 ) ;
#51 = CLOSED_SHELL ( 'NONE', ( #215, #213, #225, #217, #220, #214 ) ) ;
#52 = CALENDAR_DATE ( 2013, 9, 8 ) ;
#53 = CC_DESIGN_APPROVAL ( #200, ( #50 ) ) ;
#54 = FACE_OUTER_BOUND ( 'NONE', #170, .T. ) ;
#55 = COORDINATED_UNIVERSAL_TIME_OFFSET ( 9, 0, .AHEAD. ) ;
#56 = VECTOR ( 'NONE', #110, 1000.000000000000000 ) ;
#57 = AXIS2_PLACEMENT_3D ( 'NONE', #122, #142, #137 ) ;
#58 = COORDINATED_UNIVERSAL_TIME_OFFSET ( 9, 0, .AHEAD. ) ;
#59 = FACE_OUTER_BOUND ( 'NONE', #174, .T. ) ;
#60 = VECTOR ( 'NONE', #106, 1000.000000000000000 ) ;
#61 = PRODUCT_DEFINITION_FORMATION_WITH_SPECIFIED_SOURCE ( 'ANY', '', #235, .NOT_KNOWN. ) ;
#62 = VECTOR ( 'NONE', #105, 1000.000000000000000 ) ;
#63 = VECTOR ( 'NONE', #91, 1000.000000000000000 ) ;
#64 = VECTOR ( 'NONE', #98, 1000.000000000000000 ) ;
#65 = FACE_OUTER_BOUND ( 'NONE', #175, .T. ) ;
#66 = CC_DESIGN_APPROVAL ( #210, ( #61 ) ) ;
#67 = APPROVAL_PERSON_ORGANIZATION ( #22, #200, #20 ) ;
#68 = ORGANIZATION ( 'UNSPECIFIED', 'UNSPECIFIED', '' ) ;
#69 = VECTOR ( 'NONE', #139, 1000.000000000000000 ) ;
#70 = CC_DESIGN_SECURITY_CLASSIFICATION ( #50, ( #61 ) ) ;
#71 = AXIS2_PLACEMENT_3D ( 'NONE', #186, #187, #188 ) ;
#72 = FACE_OUTER_BOUND ( 'NONE', #173, .T. ) ;
#73 = AXIS2_PLACEMENT_3D ( 'NONE', #2, #14, #4 ) ;
#74 = CALENDAR_DATE ( 2013, 9, 8 ) ;
#75 = AXIS2_PLACEMENT_3D ( 'NONE', #144, #138, #135 ) ;
#76 = COORDINATED_UNIVERSAL_TIME_OFFSET ( 9, 0, .AHEAD. ) ;
#77 = AXIS2_PLACEMENT_3D ( 'NONE', #103, #97, #102 ) ;
#78 = VECTOR ( 'NONE', #94, 1000.000000000000000 ) ;
#79 = CALENDAR_DATE ( 2013, 9, 8 ) ;
#80 = FACE_OUTER_BOUND ( 'NONE', #172, .T. ) ;
#81 = VECTOR ( 'NONE', #116, 1000.000000000000000 ) ;
#82 = CALENDAR_DATE ( 2013, 9, 8 ) ;
#83 = AXIS2_PLACEMENT_3D ( 'NONE', #191, #183, #184 ) ;
#84 = APPROVAL_PERSON_ORGANIZATION ( #9, #230, #15 ) ;
#85 = APPROVAL_PERSON_ORGANIZATION ( #36, #210, #34 ) ;
#86 = AXIS2_PLACEMENT_3D ( 'NONE', #124, #118, #120 ) ;
#87 = COORDINATED_UNIVERSAL_TIME_OFFSET ( 9, 0, .AHEAD. ) ;
#88 = VECTOR ( 'NONE', #107, 1000.000000000000000 ) ;
#89 = VECTOR ( 'NONE', #117, 1000.000000000000000 ) ;
#90 = LINE ( 'NONE', #101, #88 ) ;
#91 = DIRECTION ( 'NONE',  ( -0.0000000000000000000, -0.0000000000000000000, -1.000000000000000000 ) ) ;
#92 = CARTESIAN_POINT ( 'NONE',  ( 15.00000000000000000, 1.500000000000000000, 500.0000000000000000 ) ) ;
#93 = LINE ( 'NONE', #92, #63 ) ;
#94 = DIRECTION ( 'NONE',  ( 1.000000000000000000, 6.505213034913026600E-017, 0.0000000000000000000 ) ) ;
#95 = CARTESIAN_POINT ( 'NONE',  ( -15.00000000000000000, -1.500000000000002000, 500.0000000000000000 ) ) ;
#96 = LINE ( 'NONE', #95, #78 ) ;
#97 = DIRECTION ( 'NONE',  ( -1.000000000000000000, 0.0000000000000000000, 0.0000000000000000000 ) ) ;
#98 = DIRECTION ( 'NONE',  ( -0.0000000000000000000, 1.000000000000000000, -0.0000000000000000000 ) ) ;
#99 = LINE ( 'NONE', #100, #64 ) ;
#100 = CARTESIAN_POINT ( 'NONE',  ( 15.00000000000000000, 1.500000000000000000, 500.0000000000000000 ) ) ;
#101 = CARTESIAN_POINT ( 'NONE',  ( 15.00000000000000000, 1.500000000000000000, -500.0000000000000000 ) ) ;
#102 = DIRECTION ( 'NONE',  ( 0.0000000000000000000, 0.0000000000000000000, 1.000000000000000000 ) ) ;
#103 = CARTESIAN_POINT ( 'NONE',  ( 15.00000000000000000, 1.500000000000000000, 500.0000000000000000 ) ) ;
#104 = CARTESIAN_POINT ( 'NONE',  ( -15.00000000000000000, 1.500000000000002000, 500.0000000000000000 ) ) ;
#105 = DIRECTION ( 'NONE',  ( -1.000000000000000000, 6.505213034913026600E-017, -0.0000000000000000000 ) ) ;
#106 = DIRECTION ( 'NONE',  ( -0.0000000000000000000, -0.0000000000000000000, -1.000000000000000000 ) ) ;
#107 = DIRECTION ( 'NONE',  ( -0.0000000000000000000, 1.000000000000000000, -0.0000000000000000000 ) ) ;
#108 = CARTESIAN_POINT ( 'NONE',  ( 15.00000000000000000, -1.500000000000000000, 500.0000000000000000 ) ) ;
#109 = LINE ( 'NONE', #108, #60 ) ;
#110 = DIRECTION ( 'NONE',  ( -0.0000000000000000000, -0.0000000000000000000, -1.000000000000000000 ) ) ;
#111 = CARTESIAN_POINT ( 'NONE',  ( -15.00000000000000000, 1.500000000000002000, 500.0000000000000000 ) ) ;
#112 = LINE ( 'NONE', #111, #56 ) ;
#113 =( GEOMETRIC_REPRESENTATION_CONTEXT ( 3 ) GLOBAL_UNCERTAINTY_ASSIGNED_CONTEXT ( ( #198 ) ) GLOBAL_UNIT_ASSIGNED_CONTEXT ( ( #3, #12, #13 ) ) REPRESENTATION_CONTEXT ( 'NONE', 'WORKASPACE' ) );
#114 = PLANE ( 'NONE',  #86 ) ;
#115 = CARTESIAN_POINT ( 'NONE',  ( -15.00000000000000000, -1.500000000000002000, 500.0000000000000000 ) ) ;
#116 = DIRECTION ( 'NONE',  ( 1.000000000000000000, 6.505213034913026600E-017, 0.0000000000000000000 ) ) ;
#117 = DIRECTION ( 'NONE',  ( -1.000000000000000000, 6.505213034913026600E-017, -0.0000000000000000000 ) ) ;
#118 = DIRECTION ( 'NONE',  ( -0.0000000000000000000, 0.0000000000000000000, 1.000000000000000000 ) ) ;
#119 = LINE ( 'NONE', #128, #89 ) ;
#120 = DIRECTION ( 'NONE',  ( 1.000000000000000000, 0.0000000000000000000, 0.0000000000000000000 ) ) ;
#121 = DIRECTION ( 'NONE',  ( -0.0000000000000000000, -0.0000000000000000000, -1.000000000000000000 ) ) ;
#122 = CARTESIAN_POINT ( 'NONE',  ( -15.00000000000000000, 1.500000000000002000, 500.0000000000000000 ) ) ;
#123 = DIRECTION ( 'NONE',  ( 0.0000000000000000000, -1.000000000000000000, 0.0000000000000000000 ) ) ;
#124 = CARTESIAN_POINT ( 'NONE',  ( 0.0000000000000000000, 0.0000000000000000000, 500.0000000000000000 ) ) ;
#125 = CARTESIAN_POINT ( 'NONE',  ( -15.00000000000000000, -1.500000000000002000, -500.0000000000000000 ) ) ;
#126 = PLANE ( 'NONE',  #77 ) ;
#127 = LINE ( 'NONE', #125, #81 ) ;
#128 = CARTESIAN_POINT ( 'NONE',  ( -15.00000000000000000, 1.500000000000002000, -500.0000000000000000 ) ) ;
#129 = LINE ( 'NONE', #115, #49 ) ;
#130 = LINE ( 'NONE', #104, #62 ) ;
#131 = CARTESIAN_POINT ( 'NONE',  ( 15.00000000000000000, -1.500000000000000000, -500.0000000000000000 ) ) ;
#132 = LINE ( 'NONE', #140, #69 ) ;
#133 = CARTESIAN_POINT ( 'NONE',  ( -15.00000000000000000, 1.500000000000002000, 500.0000000000000000 ) ) ;
#134 = LINE ( 'NONE', #133, #45 ) ;
#135 = DIRECTION ( 'NONE',  ( 1.000000000000000000, -6.505213034913026600E-017, 0.0000000000000000000 ) ) ;
#136 = VERTEX_POINT ( 'NONE', #145 ) ;
#137 = DIRECTION ( 'NONE',  ( -0.0000000000000000000, 0.0000000000000000000, -1.000000000000000000 ) ) ;
#138 = DIRECTION ( 'NONE',  ( -6.505213034913026600E-017, -1.000000000000000000, 0.0000000000000000000 ) ) ;
#139 = DIRECTION ( 'NONE',  ( 0.0000000000000000000, -1.000000000000000000, 0.0000000000000000000 ) ) ;
#140 = CARTESIAN_POINT ( 'NONE',  ( -15.00000000000000000, 1.500000000000002000, -500.0000000000000000 ) ) ;
#141 = PLANE ( 'NONE',  #57 ) ;
#142 = DIRECTION ( 'NONE',  ( 1.000000000000000000, 0.0000000000000000000, -0.0000000000000000000 ) ) ;
#143 = PLANE ( 'NONE',  #75 ) ;
#144 = CARTESIAN_POINT ( 'NONE',  ( -15.00000000000000000, 1.500000000000002000, 500.0000000000000000 ) ) ;
#145 = CARTESIAN_POINT ( 'NONE',  ( -15.00000000000000000, 1.500000000000002000, 500.0000000000000000 ) ) ;
#146 = ORIENTED_EDGE ( 'NONE', *, *, #231, .T. ) ;
#147 = ORIENTED_EDGE ( 'NONE', *, *, #226, .F. ) ;
#148 = ORIENTED_EDGE ( 'NONE', *, *, #216, .T. ) ;
#149 = ORIENTED_EDGE ( 'NONE', *, *, #229, .F. ) ;
#150 = ORIENTED_EDGE ( 'NONE', *, *, #228, .F. ) ;
#151 = ORIENTED_EDGE ( 'NONE', *, *, #222, .F. ) ;
#152 = ORIENTED_EDGE ( 'NONE', *, *, #216, .F. ) ;
#153 = ORIENTED_EDGE ( 'NONE', *, *, #221, .F. ) ;
#154 = ORIENTED_EDGE ( 'NONE', *, *, #224, .T. ) ;
#155 = ORIENTED_EDGE ( 'NONE', *, *, #226, .T. ) ;
#156 = ORIENTED_EDGE ( 'NONE', *, *, #218, .T. ) ;
#157 = ORIENTED_EDGE ( 'NONE', *, *, #227, .T. ) ;
#158 = ORIENTED_EDGE ( 'NONE', *, *, #223, .T. ) ;
#159 = ORIENTED_EDGE ( 'NONE', *, *, #231, .F. ) ;
#160 = ORIENTED_EDGE ( 'NONE', *, *, #223, .F. ) ;
#161 = ORIENTED_EDGE ( 'NONE', *, *, #222, .T. ) ;
#162 = ORIENTED_EDGE ( 'NONE', *, *, #224, .F. ) ;
#163 = ORIENTED_EDGE ( 'NONE', *, *, #227, .F. ) ;
#164 = ORIENTED_EDGE ( 'NONE', *, *, #229, .T. ) ;
#165 = ORIENTED_EDGE ( 'NONE', *, *, #221, .T. ) ;
#166 = ORIENTED_EDGE ( 'NONE', *, *, #218, .F. ) ;
#167 = ORIENTED_EDGE ( 'NONE', *, *, #228, .T. ) ;
#168 = ORIENTED_EDGE ( 'NONE', *, *, #219, .T. ) ;
#169 = ORIENTED_EDGE ( 'NONE', *, *, #219, .F. ) ;
#170 = EDGE_LOOP ( 'NONE', ( #165, #149, #147, #168 ) ) ;
#171 = EDGE_LOOP ( 'NONE', ( #167, #163, #162, #164 ) ) ;
#172 = EDGE_LOOP ( 'NONE', ( #148, #169, #166, #146 ) ) ;
#173 = EDGE_LOOP ( 'NONE', ( #161, #159, #160, #157 ) ) ;
#174 = EDGE_LOOP ( 'NONE', ( #156, #155, #154, #158 ) ) ;
#175 = EDGE_LOOP ( 'NONE', ( #152, #151, #150, #153 ) ) ;
#176 = VERTEX_POINT ( 'NONE', #190 ) ;
#177 = VERTEX_POINT ( 'NONE', #131 ) ;
#178 = VERTEX_POINT ( 'NONE', #192 ) ;
#179 = VERTEX_POINT ( 'NONE', #193 ) ;
#180 = VERTEX_POINT ( 'NONE', #194 ) ;
#181 = VERTEX_POINT ( 'NONE', #195 ) ;
#182 = PLANE ( 'NONE',  #83 ) ;
#183 = DIRECTION ( 'NONE',  ( -6.505213034913026600E-017, 1.000000000000000000, 0.0000000000000000000 ) ) ;
#184 = DIRECTION ( 'NONE',  ( -1.000000000000000000, -6.505213034913026600E-017, 0.0000000000000000000 ) ) ;
#185 = PLANE ( 'NONE',  #71 ) ;
#186 = CARTESIAN_POINT ( 'NONE',  ( 0.0000000000000000000, 0.0000000000000000000, -500.0000000000000000 ) ) ;
#187 = DIRECTION ( 'NONE',  ( -0.0000000000000000000, 0.0000000000000000000, 1.000000000000000000 ) ) ;
#188 = DIRECTION ( 'NONE',  ( 1.000000000000000000, 0.0000000000000000000, 0.0000000000000000000 ) ) ;
#189 = VERTEX_POINT ( 'NONE', #196 ) ;
#190 = CARTESIAN_POINT ( 'NONE',  ( 15.00000000000000000, -1.500000000000000000, 500.0000000000000000 ) ) ;
#191 = CARTESIAN_POINT ( 'NONE',  ( -15.00000000000000000, -1.500000000000002000, 500.0000000000000000 ) ) ;
#192 = CARTESIAN_POINT ( 'NONE',  ( 15.00000000000000000, 1.500000000000000000, 500.0000000000000000 ) ) ;
#193 = CARTESIAN_POINT ( 'NONE',  ( -15.00000000000000000, -1.500000000000002000, -500.0000000000000000 ) ) ;
#194 = CARTESIAN_POINT ( 'NONE',  ( 15.00000000000000000, 1.500000000000000000, -500.0000000000000000 ) ) ;
#195 = CARTESIAN_POINT ( 'NONE',  ( -15.00000000000000000, -1.500000000000002000, 500.0000000000000000 ) ) ;
#196 = CARTESIAN_POINT ( 'NONE',  ( -15.00000000000000000, 1.500000000000002000, -500.0000000000000000 ) ) ;
#197 = ADVANCED_BREP_SHAPE_REPRESENTATION ( 'sone3D', ( #43, #73 ), #113 ) ;
#198 = UNCERTAINTY_MEASURE_WITH_UNIT (LENGTH_MEASURE( 1.000000000000000100E-005 ), #3, 'distance_accuracy_value', 'NONE');
#199 = PERSON ( 'UNSPECIFIED', 'UNSPECIFIED', 'UNSPECIFIED', ('UNSPECIFIED'), ('UNSPECIFIED'), ('UNSPECIFIED') ) ;
#200 = APPROVAL ( #21, 'UNSPECIFIED' ) ;
#201 = CC_DESIGN_DATE_AND_TIME_ASSIGNMENT ( #24, #23, ( #50 ) ) ;
#202 = LOCAL_TIME ( 15, 32, 47.00000000000000000, #48 ) ;
#203 = CC_DESIGN_PERSON_AND_ORGANIZATION_ASSIGNMENT ( #26, #25, ( #50 ) ) ;
#204 = CC_DESIGN_PERSON_AND_ORGANIZATION_ASSIGNMENT ( #29, #28, ( #61 ) ) ;
#205 = CC_DESIGN_PERSON_AND_ORGANIZATION_ASSIGNMENT ( #31, #30, ( #61 ) ) ;
#206 = CC_DESIGN_PERSON_AND_ORGANIZATION_ASSIGNMENT ( #40, #39, ( #233 ) ) ;
#207 = LOCAL_TIME ( 15, 32, 47.00000000000000000, #58 ) ;
#208 = LOCAL_TIME ( 15, 32, 47.00000000000000000, #55 ) ;
#209 = CC_DESIGN_DATE_AND_TIME_ASSIGNMENT ( #38, #37, ( #233 ) ) ;
#210 = APPROVAL ( #35, 'UNSPECIFIED' ) ;
#211 = LOCAL_TIME ( 15, 32, 47.00000000000000000, #76 ) ;
#212 = LOCAL_TIME ( 15, 32, 47.00000000000000000, #87 ) ;
#213 = ADVANCED_FACE ( 'NONE', ( #54 ), #182, .F. ) ;
#214 = ADVANCED_FACE ( 'NONE', ( #65 ), #185, .F. ) ;
#215 = ADVANCED_FACE ( 'NONE', ( #80 ), #141, .F. ) ;
#216 = EDGE_CURVE ( 'NONE', #189, #179, #132, .T. ) ;
#217 = ADVANCED_FACE ( 'NONE', ( #72 ), #143, .F. ) ;
#218 = EDGE_CURVE ( 'NONE', #136, #181, #134, .T. ) ;
#219 = EDGE_CURVE ( 'NONE', #181, #179, #129, .T. ) ;
#220 = ADVANCED_FACE ( 'NONE', ( #59 ), #114, .T. ) ;
#221 = EDGE_CURVE ( 'NONE', #179, #177, #127, .T. ) ;
#222 = EDGE_CURVE ( 'NONE', #180, #189, #119, .T. ) ;
#223 = EDGE_CURVE ( 'NONE', #178, #136, #130, .T. ) ;
#224 = EDGE_CURVE ( 'NONE', #176, #178, #99, .T. ) ;
#225 = ADVANCED_FACE ( 'NONE', ( #46 ), #126, .F. ) ;
#226 = EDGE_CURVE ( 'NONE', #181, #176, #96, .T. ) ;
#227 = EDGE_CURVE ( 'NONE', #178, #180, #93, .T. ) ;
#228 = EDGE_CURVE ( 'NONE', #177, #180, #90, .T. ) ;
#229 = EDGE_CURVE ( 'NONE', #176, #177, #109, .T. ) ;
#230 = APPROVAL ( #11, 'UNSPECIFIED' ) ;
#231 = EDGE_CURVE ( 'NONE', #136, #189, #112, .T. ) ;
#232 = CC_DESIGN_PERSON_AND_ORGANIZATION_ASSIGNMENT ( #8, #7, ( #235 ) ) ;
#233 = PRODUCT_DEFINITION ( 'UNKNOWN', '', #61, #42 ) ;
#234 = PRODUCT_RELATED_PRODUCT_CATEGORY ( 'detail', '', ( #235 ) ) ;
#235 = PRODUCT ( 'sone3D', 'sone3D', '', ( #6 ) ) ;
#236 = APPLICATION_CONTEXT ( 'configuration controlled 3d designs of mechanical parts and assemblies' ) ;
#237 = APPLICATION_CONTEXT ( 'configuration controlled 3d designs of mechanical parts and assemblies' ) ;
ENDSEC;
END-ISO-10303-21;
