ISO-10303-21;
HEADER;
FILE_DESCRIPTION (( 'STEP AP203' ),
    '1' );
FILE_NAME ('sone3D.STEP',
    '2013-08-09T06:32:23',
    ( '' ),
    ( '' ),
    'SwSTEP 2.0',
    'SolidWorks 2012',
    '' );
FILE_SCHEMA (( 'CONFIG_CONTROL_DESIGN' ));
ENDSEC;

DATA;
#1 = MANIFOLD_SOLID_BREP ( 'ÎÞ½ - µoµ1', #28 ) ;
#2 = DESIGN_CONTEXT ( 'detailed design', #200, 'design' ) ;
#3 = PRODUCT_DEFINITION_SHAPE ( 'NONE', 'NONE',  #235 ) ;
#4 = FACE_OUTER_BOUND ( 'NONE', #174, .T. ) ;
#5 = COORDINATED_UNIVERSAL_TIME_OFFSET ( 9, 0, .AHEAD. ) ;
#6 = CC_DESIGN_SECURITY_CLASSIFICATION ( #33, ( #35 ) ) ;
#7 = AXIS2_PLACEMENT_3D ( 'NONE', #142, #119, #128 ) ;
#8 = CALENDAR_DATE ( 2013, 9, 8 ) ;
#9 = APPROVAL_PERSON_ORGANIZATION ( #53, #202, #51 ) ;
#10 = AXIS2_PLACEMENT_3D ( 'NONE', #184, #186, #188 ) ;
#11 = VECTOR ( 'NONE', #100, 1000.000000000000000 ) ;
#12 = CC_DESIGN_APPROVAL ( #219, ( #235 ) ) ;
#13 = CALENDAR_DATE ( 2013, 9, 8 ) ;
#14 = FACE_OUTER_BOUND ( 'NONE', #169, .T. ) ;
#15 = FACE_OUTER_BOUND ( 'NONE', #173, .T. ) ;
#16 = VECTOR ( 'NONE', #141, 1000.000000000000000 ) ;
#17 = ORGANIZATION ( 'UNSPECIFIED', 'UNSPECIFIED', '' ) ;
#18 = VECTOR ( 'NONE', #121, 1000.000000000000000 ) ;
#19 = APPROVAL_PERSON_ORGANIZATION ( #76, #219, #74 ) ;
#20 = CALENDAR_DATE ( 2013, 9, 8 ) ;
#21 = AXIS2_PLACEMENT_3D ( 'NONE', #127, #122, #120 ) ;
#22 = VECTOR ( 'NONE', #89, 1000.000000000000000 ) ;
#23 = AXIS2_PLACEMENT_3D ( 'NONE', #84, #83, #82 ) ;
#24 = VECTOR ( 'NONE', #109, 1000.000000000000000 ) ;
#25 = COORDINATED_UNIVERSAL_TIME_OFFSET ( 9, 0, .AHEAD. ) ;
#26 = VECTOR ( 'NONE', #107, 1000.000000000000000 ) ;
#27 = VECTOR ( 'NONE', #97, 1000.000000000000000 ) ;
#28 = CLOSED_SHELL ( 'NONE', ( #216, #220, #218, #224, #228, #215 ) ) ;
#29 = COORDINATED_UNIVERSAL_TIME_OFFSET ( 9, 0, .AHEAD. ) ;
#30 = FACE_OUTER_BOUND ( 'NONE', #172, .T. ) ;
#31 = APPROVAL_PERSON_ORGANIZATION ( #67, #212, #65 ) ;
#32 = CALENDAR_DATE ( 2013, 9, 8 ) ;
#33 = SECURITY_CLASSIFICATION ( '', '', #58 ) ;
#34 = VECTOR ( 'NONE', #108, 1000.000000000000000 ) ;
#35 = PRODUCT_DEFINITION_FORMATION_WITH_SPECIFIED_SOURCE ( 'ANY', '', #237, .NOT_KNOWN. ) ;
#36 = VECTOR ( 'NONE', #92, 1000.000000000000000 ) ;
#37 = VECTOR ( 'NONE', #137, 1000.000000000000000 ) ;
#38 = COORDINATED_UNIVERSAL_TIME_OFFSET ( 9, 0, .AHEAD. ) ;
#39 = FACE_OUTER_BOUND ( 'NONE', #170, .T. ) ;
#40 = VECTOR ( 'NONE', #140, 1000.000000000000000 ) ;
#41 = CC_DESIGN_APPROVAL ( #212, ( #35 ) ) ;
#42 = CC_DESIGN_APPROVAL ( #202, ( #33 ) ) ;
#43 = AXIS2_PLACEMENT_3D ( 'NONE', #133, #143, #144 ) ;
#44 = CALENDAR_DATE ( 2013, 9, 8 ) ;
#45 = AXIS2_PLACEMENT_3D ( 'NONE', #196, #183, #192 ) ;
#46 = FACE_OUTER_BOUND ( 'NONE', #171, .T. ) ;
#47 = VECTOR ( 'NONE', #138, 1000.000000000000000 ) ;
#48 = AXIS2_PLACEMENT_3D ( 'NONE', #105, #106, #104 ) ;
#49 = COORDINATED_UNIVERSAL_TIME_OFFSET ( 9, 0, .AHEAD. ) ;
#50 = DATE_AND_TIME ( #32, #213 ) ;
#51 = APPROVAL_ROLE ( '' ) ;
#52 = APPROVAL_STATUS ( 'not_yet_approved' ) ;
#53 = PERSON_AND_ORGANIZATION ( #197, #17 ) ;
#54 = DATE_TIME_ROLE ( 'classification_date' ) ;
#55 = DATE_AND_TIME ( #8, #204 ) ;
#56 = PERSON_AND_ORGANIZATION_ROLE ( 'classification_officer' ) ;
#57 = PERSON_AND_ORGANIZATION ( #197, #17 ) ;
#58 = SECURITY_CLASSIFICATION_LEVEL ( 'unclassified' ) ;
#59 = PERSON_AND_ORGANIZATION_ROLE ( 'design_supplier' ) ;
#60 = PERSON_AND_ORGANIZATION ( #197, #17 ) ;
#61 = PERSON_AND_ORGANIZATION_ROLE ( 'creator' ) ;
#62 = PERSON_AND_ORGANIZATION ( #197, #17 ) ;
#63 = APPROVAL_DATE_TIME ( #64, #212 ) ;
#64 = DATE_AND_TIME ( #13, #214 ) ;
#65 = APPROVAL_ROLE ( '' ) ;
#66 = APPROVAL_STATUS ( 'not_yet_approved' ) ;
#67 = PERSON_AND_ORGANIZATION ( #197, #17 ) ;
#68 = DATE_TIME_ROLE ( 'creation_date' ) ;
#69 = DATE_AND_TIME ( #20, #209 ) ;
#70 = PERSON_AND_ORGANIZATION_ROLE ( 'creator' ) ;
#71 = PERSON_AND_ORGANIZATION ( #197, #17 ) ;
#72 = APPROVAL_DATE_TIME ( #73, #219 ) ;
#73 = DATE_AND_TIME ( #44, #210 ) ;
#74 = APPROVAL_ROLE ( '' ) ;
#75 = APPROVAL_STATUS ( 'not_yet_approved' ) ;
#76 = PERSON_AND_ORGANIZATION ( #197, #17 ) ;
#77 = APPLICATION_PROTOCOL_DEFINITION ( 'international standard', 'config_control_design', 1994, #200 ) ;
#78 = PERSON_AND_ORGANIZATION_ROLE ( 'design_owner' ) ;
#79 = PERSON_AND_ORGANIZATION ( #197, #17 ) ;
#80 = MECHANICAL_CONTEXT ( 'NONE', #201, 'mechanical' ) ;
#81 = SHAPE_DEFINITION_REPRESENTATION ( #3, #198 ) ;
#82 = DIRECTION ( 'NONE',  ( 1.000000000000000000, 0.0000000000000000000, 0.0000000000000000000 ) ) ;
#83 = DIRECTION ( 'NONE',  ( 0.0000000000000000000, 0.0000000000000000000, 1.000000000000000000 ) ) ;
#84 = CARTESIAN_POINT ( 'NONE',  ( 0.0000000000000000000, 0.0000000000000000000, 0.0000000000000000000 ) ) ;
#85 = APPLICATION_PROTOCOL_DEFINITION ( 'international standard', 'config_control_design', 1994, #201 ) ;
#86 =( NAMED_UNIT ( * ) SI_UNIT ( $, .STERADIAN. ) SOLID_ANGLE_UNIT ( ) );
#87 =( NAMED_UNIT ( * ) PLANE_ANGLE_UNIT ( ) SI_UNIT ( $, .RADIAN. ) );
#88 =( LENGTH_UNIT ( ) NAMED_UNIT ( * ) SI_UNIT ( .MILLI., .METRE. ) );
#89 = DIRECTION ( 'NONE',  ( -0.0000000000000000000, -0.0000000000000000000, -1.000000000000000000 ) ) ;
#90 = CARTESIAN_POINT ( 'NONE',  ( 12.50000000000000000, 1.500000000000000000, 500.0000000000000000 ) ) ;
#91 = LINE ( 'NONE', #90, #22 ) ;
#92 = DIRECTION ( 'NONE',  ( -0.0000000000000000000, -0.0000000000000000000, -1.000000000000000000 ) ) ;
#93 = CARTESIAN_POINT ( 'NONE',  ( -12.50000000000000000, 1.500000000000001600, 500.0000000000000000 ) ) ;
#94 = LINE ( 'NONE', #93, #36 ) ;
#95 = CARTESIAN_POINT ( 'NONE',  ( -12.50000000000000000, -1.500000000000001600, -500.0000000000000000 ) ) ;
#96 = LINE ( 'NONE', #95, #26 ) ;
#97 = DIRECTION ( 'NONE',  ( -0.0000000000000000000, -0.0000000000000000000, -1.000000000000000000 ) ) ;
#98 = CARTESIAN_POINT ( 'NONE',  ( 12.50000000000000000, -1.500000000000000000, 500.0000000000000000 ) ) ;
#99 = LINE ( 'NONE', #98, #27 ) ;
#100 = DIRECTION ( 'NONE',  ( 1.000000000000000000, 6.071532165918824800E-017, 0.0000000000000000000 ) ) ;
#101 = CARTESIAN_POINT ( 'NONE',  ( -12.50000000000000000, -1.500000000000001600, 500.0000000000000000 ) ) ;
#102 = LINE ( 'NONE', #101, #11 ) ;
#103 = CARTESIAN_POINT ( 'NONE',  ( -12.50000000000000000, -1.500000000000001600, 500.0000000000000000 ) ) ;
#104 = DIRECTION ( 'NONE',  ( 1.000000000000000000, 0.0000000000000000000, 0.0000000000000000000 ) ) ;
#105 = CARTESIAN_POINT ( 'NONE',  ( 0.0000000000000000000, 0.0000000000000000000, 500.0000000000000000 ) ) ;
#106 = DIRECTION ( 'NONE',  ( -0.0000000000000000000, 0.0000000000000000000, 1.000000000000000000 ) ) ;
#107 = DIRECTION ( 'NONE',  ( 1.000000000000000000, 6.071532165918824800E-017, 0.0000000000000000000 ) ) ;
#108 = DIRECTION ( 'NONE',  ( -0.0000000000000000000, 1.000000000000000000, -0.0000000000000000000 ) ) ;
#109 = DIRECTION ( 'NONE',  ( -0.0000000000000000000, -0.0000000000000000000, -1.000000000000000000 ) ) ;
#110 = LINE ( 'NONE', #103, #24 ) ;
#111 = APPROVAL_DATE_TIME ( #50, #202 ) ;
#112 =( GEOMETRIC_REPRESENTATION_CONTEXT ( 3 ) GLOBAL_UNCERTAINTY_ASSIGNED_CONTEXT ( ( #199 ) ) GLOBAL_UNIT_ASSIGNED_CONTEXT ( ( #88, #87, #86 ) ) REPRESENTATION_CONTEXT ( 'NONE', 'WORKASPACE' ) );
#113 = PLANE ( 'NONE',  #21 ) ;
#114 = CARTESIAN_POINT ( 'NONE',  ( -12.50000000000000000, 1.500000000000001600, 500.0000000000000000 ) ) ;
#115 = CARTESIAN_POINT ( 'NONE',  ( -12.50000000000000000, 1.500000000000001600, -500.0000000000000000 ) ) ;
#116 = LINE ( 'NONE', #125, #18 ) ;
#117 = PLANE ( 'NONE',  #43 ) ;
#118 = LINE ( 'NONE', #115, #37 ) ;
#119 = DIRECTION ( 'NONE',  ( -1.000000000000000000, 0.0000000000000000000, 0.0000000000000000000 ) ) ;
#120 = DIRECTION ( 'NONE',  ( 1.000000000000000000, -6.071532165918824800E-017, 0.0000000000000000000 ) ) ;
#121 = DIRECTION ( 'NONE',  ( 0.0000000000000000000, -1.000000000000000000, 0.0000000000000000000 ) ) ;
#122 = DIRECTION ( 'NONE',  ( -6.071532165918824800E-017, -1.000000000000000000, 0.0000000000000000000 ) ) ;
#123 = LINE ( 'NONE', #129, #34 ) ;
#124 = CARTESIAN_POINT ( 'NONE',  ( -12.50000000000000000, 1.500000000000001600, 500.0000000000000000 ) ) ;
#125 = CARTESIAN_POINT ( 'NONE',  ( -12.50000000000000000, 1.500000000000001600, -500.0000000000000000 ) ) ;
#126 = LINE ( 'NONE', #114, #47 ) ;
#127 = CARTESIAN_POINT ( 'NONE',  ( -12.50000000000000000, 1.500000000000001600, 500.0000000000000000 ) ) ;
#128 = DIRECTION ( 'NONE',  ( 0.0000000000000000000, 0.0000000000000000000, 1.000000000000000000 ) ) ;
#129 = CARTESIAN_POINT ( 'NONE',  ( 12.50000000000000000, 1.500000000000000000, -500.0000000000000000 ) ) ;
#130 = PLANE ( 'NONE',  #48 ) ;
#131 = CARTESIAN_POINT ( 'NONE',  ( 12.50000000000000000, 1.500000000000000000, 500.0000000000000000 ) ) ;
#132 = LINE ( 'NONE', #131, #40 ) ;
#133 = CARTESIAN_POINT ( 'NONE',  ( -12.50000000000000000, -1.500000000000001600, 500.0000000000000000 ) ) ;
#134 = CARTESIAN_POINT ( 'NONE',  ( -12.50000000000000000, -1.500000000000001600, -500.0000000000000000 ) ) ;
#135 = CARTESIAN_POINT ( 'NONE',  ( 12.50000000000000000, -1.500000000000000000, 500.0000000000000000 ) ) ;
#136 = CARTESIAN_POINT ( 'NONE',  ( -12.50000000000000000, 1.500000000000001600, -500.0000000000000000 ) ) ;
#137 = DIRECTION ( 'NONE',  ( -1.000000000000000000, 6.071532165918824800E-017, -0.0000000000000000000 ) ) ;
#138 = DIRECTION ( 'NONE',  ( -1.000000000000000000, 6.071532165918824800E-017, -0.0000000000000000000 ) ) ;
#139 = ORIENTED_EDGE ( 'NONE', *, *, #233, .T. ) ;
#140 = DIRECTION ( 'NONE',  ( -0.0000000000000000000, 1.000000000000000000, -0.0000000000000000000 ) ) ;
#141 = DIRECTION ( 'NONE',  ( 0.0000000000000000000, -1.000000000000000000, 0.0000000000000000000 ) ) ;
#142 = CARTESIAN_POINT ( 'NONE',  ( 12.50000000000000000, 1.500000000000000000, 500.0000000000000000 ) ) ;
#143 = DIRECTION ( 'NONE',  ( -6.071532165918824800E-017, 1.000000000000000000, 0.0000000000000000000 ) ) ;
#144 = DIRECTION ( 'NONE',  ( -1.000000000000000000, -6.071532165918824800E-017, 0.0000000000000000000 ) ) ;
#145 = PLANE ( 'NONE',  #7 ) ;
#146 = ORIENTED_EDGE ( 'NONE', *, *, #222, .T. ) ;
#147 = ORIENTED_EDGE ( 'NONE', *, *, #227, .F. ) ;
#148 = ORIENTED_EDGE ( 'NONE', *, *, #226, .F. ) ;
#149 = ORIENTED_EDGE ( 'NONE', *, *, #222, .F. ) ;
#150 = ORIENTED_EDGE ( 'NONE', *, *, #232, .F. ) ;
#151 = ORIENTED_EDGE ( 'NONE', *, *, #221, .T. ) ;
#152 = ORIENTED_EDGE ( 'NONE', *, *, #230, .T. ) ;
#153 = ORIENTED_EDGE ( 'NONE', *, *, #217, .T. ) ;
#154 = ORIENTED_EDGE ( 'NONE', *, *, #234, .T. ) ;
#155 = ORIENTED_EDGE ( 'NONE', *, *, #225, .T. ) ;
#156 = ORIENTED_EDGE ( 'NONE', *, *, #231, .F. ) ;
#157 = ORIENTED_EDGE ( 'NONE', *, *, #233, .F. ) ;
#158 = ORIENTED_EDGE ( 'NONE', *, *, #225, .F. ) ;
#159 = ORIENTED_EDGE ( 'NONE', *, *, #226, .T. ) ;
#160 = ORIENTED_EDGE ( 'NONE', *, *, #221, .F. ) ;
#161 = ORIENTED_EDGE ( 'NONE', *, *, #234, .F. ) ;
#162 = ORIENTED_EDGE ( 'NONE', *, *, #231, .T. ) ;
#163 = ORIENTED_EDGE ( 'NONE', *, *, #232, .T. ) ;
#164 = ORIENTED_EDGE ( 'NONE', *, *, #217, .F. ) ;
#165 = ORIENTED_EDGE ( 'NONE', *, *, #230, .F. ) ;
#166 = ORIENTED_EDGE ( 'NONE', *, *, #229, .F. ) ;
#167 = ORIENTED_EDGE ( 'NONE', *, *, #227, .T. ) ;
#168 = ORIENTED_EDGE ( 'NONE', *, *, #229, .T. ) ;
#169 = EDGE_LOOP ( 'NONE', ( #163, #156, #165, #168 ) ) ;
#170 = EDGE_LOOP ( 'NONE', ( #167, #161, #160, #162 ) ) ;
#171 = EDGE_LOOP ( 'NONE', ( #146, #166, #164, #139 ) ) ;
#172 = EDGE_LOOP ( 'NONE', ( #159, #157, #158, #154 ) ) ;
#173 = EDGE_LOOP ( 'NONE', ( #153, #152, #151, #155 ) ) ;
#174 = EDGE_LOOP ( 'NONE', ( #149, #148, #147, #150 ) ) ;
#175 = VERTEX_POINT ( 'NONE', #134 ) ;
#176 = VERTEX_POINT ( 'NONE', #190 ) ;
#177 = VERTEX_POINT ( 'NONE', #135 ) ;
#178 = VERTEX_POINT ( 'NONE', #191 ) ;
#179 = VERTEX_POINT ( 'NONE', #124 ) ;
#180 = VERTEX_POINT ( 'NONE', #136 ) ;
#181 = VERTEX_POINT ( 'NONE', #193 ) ;
#182 = VERTEX_POINT ( 'NONE', #194 ) ;
#183 = DIRECTION ( 'NONE',  ( -0.0000000000000000000, 0.0000000000000000000, 1.000000000000000000 ) ) ;
#184 = CARTESIAN_POINT ( 'NONE',  ( -12.50000000000000000, 1.500000000000001600, 500.0000000000000000 ) ) ;
#185 = PLANE ( 'NONE',  #10 ) ;
#186 = DIRECTION ( 'NONE',  ( 1.000000000000000000, 0.0000000000000000000, -0.0000000000000000000 ) ) ;
#187 = CARTESIAN_POINT ( 'NONE',  ( -12.50000000000000000, 1.500000000000001600, 500.0000000000000000 ) ) ;
#188 = DIRECTION ( 'NONE',  ( -0.0000000000000000000, 0.0000000000000000000, -1.000000000000000000 ) ) ;
#189 = LINE ( 'NONE', #187, #16 ) ;
#190 = CARTESIAN_POINT ( 'NONE',  ( -12.50000000000000000, -1.500000000000001600, 500.0000000000000000 ) ) ;
#191 = CARTESIAN_POINT ( 'NONE',  ( 12.50000000000000000, 1.500000000000000000, 500.0000000000000000 ) ) ;
#192 = DIRECTION ( 'NONE',  ( 1.000000000000000000, 0.0000000000000000000, 0.0000000000000000000 ) ) ;
#193 = CARTESIAN_POINT ( 'NONE',  ( 12.50000000000000000, 1.500000000000000000, -500.0000000000000000 ) ) ;
#194 = CARTESIAN_POINT ( 'NONE',  ( 12.50000000000000000, -1.500000000000000000, -500.0000000000000000 ) ) ;
#195 = PLANE ( 'NONE',  #45 ) ;
#196 = CARTESIAN_POINT ( 'NONE',  ( 0.0000000000000000000, 0.0000000000000000000, -500.0000000000000000 ) ) ;
#197 = PERSON ( 'UNSPECIFIED', 'UNSPECIFIED', 'UNSPECIFIED', ('UNSPECIFIED'), ('UNSPECIFIED'), ('UNSPECIFIED') ) ;
#198 = ADVANCED_BREP_SHAPE_REPRESENTATION ( 'sone3D', ( #1, #23 ), #112 ) ;
#199 = UNCERTAINTY_MEASURE_WITH_UNIT (LENGTH_MEASURE( 1.000000000000000100E-005 ), #88, 'distance_accuracy_value', 'NONE');
#200 = APPLICATION_CONTEXT ( 'configuration controlled 3d designs of mechanical parts and assemblies' ) ;
#201 = APPLICATION_CONTEXT ( 'configuration controlled 3d designs of mechanical parts and assemblies' ) ;
#202 = APPROVAL ( #52, 'UNSPECIFIED' ) ;
#203 = CC_DESIGN_DATE_AND_TIME_ASSIGNMENT ( #55, #54, ( #33 ) ) ;
#204 = LOCAL_TIME ( 15, 32, 23.00000000000000000, #38 ) ;
#205 = CC_DESIGN_PERSON_AND_ORGANIZATION_ASSIGNMENT ( #57, #56, ( #33 ) ) ;
#206 = CC_DESIGN_PERSON_AND_ORGANIZATION_ASSIGNMENT ( #60, #59, ( #35 ) ) ;
#207 = CC_DESIGN_PERSON_AND_ORGANIZATION_ASSIGNMENT ( #62, #61, ( #35 ) ) ;
#208 = CC_DESIGN_PERSON_AND_ORGANIZATION_ASSIGNMENT ( #71, #70, ( #235 ) ) ;
#209 = LOCAL_TIME ( 15, 32, 23.00000000000000000, #25 ) ;
#210 = LOCAL_TIME ( 15, 32, 23.00000000000000000, #49 ) ;
#211 = CC_DESIGN_DATE_AND_TIME_ASSIGNMENT ( #69, #68, ( #235 ) ) ;
#212 = APPROVAL ( #66, 'UNSPECIFIED' ) ;
#213 = LOCAL_TIME ( 15, 32, 23.00000000000000000, #29 ) ;
#214 = LOCAL_TIME ( 15, 32, 23.00000000000000000, #5 ) ;
#215 = ADVANCED_FACE ( 'NONE', ( #4 ), #195, .F. ) ;
#216 = ADVANCED_FACE ( 'NONE', ( #46 ), #185, .F. ) ;
#217 = EDGE_CURVE ( 'NONE', #179, #176, #189, .T. ) ;
#218 = ADVANCED_FACE ( 'NONE', ( #39 ), #145, .F. ) ;
#219 = APPROVAL ( #75, 'UNSPECIFIED' ) ;
#220 = ADVANCED_FACE ( 'NONE', ( #14 ), #117, .F. ) ;
#221 = EDGE_CURVE ( 'NONE', #177, #178, #132, .T. ) ;
#222 = EDGE_CURVE ( 'NONE', #180, #175, #116, .T. ) ;
#223 = CC_DESIGN_PERSON_AND_ORGANIZATION_ASSIGNMENT ( #79, #78, ( #237 ) ) ;
#224 = ADVANCED_FACE ( 'NONE', ( #30 ), #113, .F. ) ;
#225 = EDGE_CURVE ( 'NONE', #178, #179, #126, .T. ) ;
#226 = EDGE_CURVE ( 'NONE', #181, #180, #118, .T. ) ;
#227 = EDGE_CURVE ( 'NONE', #182, #181, #123, .T. ) ;
#228 = ADVANCED_FACE ( 'NONE', ( #15 ), #130, .T. ) ;
#229 = EDGE_CURVE ( 'NONE', #176, #175, #110, .T. ) ;
#230 = EDGE_CURVE ( 'NONE', #176, #177, #102, .T. ) ;
#231 = EDGE_CURVE ( 'NONE', #177, #182, #99, .T. ) ;
#232 = EDGE_CURVE ( 'NONE', #175, #182, #96, .T. ) ;
#233 = EDGE_CURVE ( 'NONE', #179, #180, #94, .T. ) ;
#234 = EDGE_CURVE ( 'NONE', #178, #181, #91, .T. ) ;
#235 = PRODUCT_DEFINITION ( 'UNKNOWN', '', #35, #2 ) ;
#236 = PRODUCT_RELATED_PRODUCT_CATEGORY ( 'detail', '', ( #237 ) ) ;
#237 = PRODUCT ( 'sone3D', 'sone3D', '', ( #80 ) ) ;
ENDSEC;
END-ISO-10303-21;
