ISO-10303-21;
HEADER;
FILE_DESCRIPTION (( 'STEP AP203' ),
    '1' );
FILE_NAME ('sone3D.STEP',
    '2013-08-09T06:31:29',
    ( '' ),
    ( '' ),
    'SwSTEP 2.0',
    'SolidWorks 2012',
    '' );
FILE_SCHEMA (( 'CONFIG_CONTROL_DESIGN' ));
ENDSEC;

DATA;
#1 = MANIFOLD_SOLID_BREP ( 'ÎÞ½ - µoµ1', #23 ) ;
#2 = PRODUCT_DEFINITION_SHAPE ( 'NONE', 'NONE',  #232 ) ;
#3 = DESIGN_CONTEXT ( 'detailed design', #4, 'design' ) ;
#4 = APPLICATION_CONTEXT ( 'configuration controlled 3d designs of mechanical parts and assemblies' ) ;
#5 = APPLICATION_CONTEXT ( 'configuration controlled 3d designs of mechanical parts and assemblies' ) ;
#6 = VECTOR ( 'NONE', #139, 1000.000000000000000 ) ;
#7 = CALENDAR_DATE ( 2013, 9, 8 ) ;
#8 = VECTOR ( 'NONE', #133, 1000.000000000000000 ) ;
#9 = AXIS2_PLACEMENT_3D ( 'NONE', #129, #134, #117 ) ;
#10 = AXIS2_PLACEMENT_3D ( 'NONE', #126, #125, #127 ) ;
#11 = VECTOR ( 'NONE', #92, 1000.000000000000000 ) ;
#12 = COORDINATED_UNIVERSAL_TIME_OFFSET ( 9, 0, .AHEAD. ) ;
#13 = AXIS2_PLACEMENT_3D ( 'NONE', #123, #121, #144 ) ;
#14 = PRODUCT_DEFINITION_FORMATION_WITH_SPECIFIED_SOURCE ( 'ANY', '', #234, .NOT_KNOWN. ) ;
#15 = CC_DESIGN_APPROVAL ( #199, ( #18 ) ) ;
#16 = FACE_OUTER_BOUND ( 'NONE', #182, .T. ) ;
#17 = ORGANIZATION ( 'UNSPECIFIED', 'UNSPECIFIED', '' ) ;
#18 = SECURITY_CLASSIFICATION ( '', '', #61 ) ;
#19 = VECTOR ( 'NONE', #131, 1000.000000000000000 ) ;
#20 = CALENDAR_DATE ( 2013, 9, 8 ) ;
#21 = COORDINATED_UNIVERSAL_TIME_OFFSET ( 9, 0, .AHEAD. ) ;
#22 = CC_DESIGN_SECURITY_CLASSIFICATION ( #18, ( #14 ) ) ;
#23 = CLOSED_SHELL ( 'NONE', ( #214, #226, #222, #213, #221, #216 ) ) ;
#24 = VECTOR ( 'NONE', #128, 1000.000000000000000 ) ;
#25 = FACE_OUTER_BOUND ( 'NONE', #184, .T. ) ;
#26 = VECTOR ( 'NONE', #191, 1000.000000000000000 ) ;
#27 = VECTOR ( 'NONE', #100, 1000.000000000000000 ) ;
#28 = VECTOR ( 'NONE', #103, 1000.000000000000000 ) ;
#29 = CALENDAR_DATE ( 2013, 9, 8 ) ;
#30 = AXIS2_PLACEMENT_3D ( 'NONE', #188, #190, #192 ) ;
#31 = CC_DESIGN_APPROVAL ( #210, ( #14 ) ) ;
#32 = FACE_OUTER_BOUND ( 'NONE', #180, .T. ) ;
#33 = CALENDAR_DATE ( 2013, 9, 8 ) ;
#34 = VECTOR ( 'NONE', #95, 1000.000000000000000 ) ;
#35 = FACE_OUTER_BOUND ( 'NONE', #183, .T. ) ;
#36 = COORDINATED_UNIVERSAL_TIME_OFFSET ( 9, 0, .AHEAD. ) ;
#37 = FACE_OUTER_BOUND ( 'NONE', #181, .T. ) ;
#38 = COORDINATED_UNIVERSAL_TIME_OFFSET ( 9, 0, .AHEAD. ) ;
#39 = AXIS2_PLACEMENT_3D ( 'NONE', #106, #112, #105 ) ;
#40 = FACE_OUTER_BOUND ( 'NONE', #179, .T. ) ;
#41 = VECTOR ( 'NONE', #186, 1000.000000000000000 ) ;
#42 = APPROVAL_PERSON_ORGANIZATION ( #79, #219, #77 ) ;
#43 = APPROVAL_PERSON_ORGANIZATION ( #56, #199, #54 ) ;
#44 = APPROVAL_PERSON_ORGANIZATION ( #70, #210, #68 ) ;
#45 = CC_DESIGN_APPROVAL ( #219, ( #232 ) ) ;
#46 = CALENDAR_DATE ( 2013, 9, 8 ) ;
#47 = VECTOR ( 'NONE', #107, 1000.000000000000000 ) ;
#48 = AXIS2_PLACEMENT_3D ( 'NONE', #87, #86, #85 ) ;
#49 = COORDINATED_UNIVERSAL_TIME_OFFSET ( 9, 0, .AHEAD. ) ;
#50 = VECTOR ( 'NONE', #97, 1000.000000000000000 ) ;
#51 = AXIS2_PLACEMENT_3D ( 'NONE', #146, #143, #115 ) ;
#52 = APPROVAL_DATE_TIME ( #53, #199 ) ;
#53 = DATE_AND_TIME ( #29, #218 ) ;
#54 = APPROVAL_ROLE ( '' ) ;
#55 = APPROVAL_STATUS ( 'not_yet_approved' ) ;
#56 = PERSON_AND_ORGANIZATION ( #236, #17 ) ;
#57 = DATE_TIME_ROLE ( 'classification_date' ) ;
#58 = DATE_AND_TIME ( #7, #201 ) ;
#59 = PERSON_AND_ORGANIZATION_ROLE ( 'classification_officer' ) ;
#60 = PERSON_AND_ORGANIZATION ( #236, #17 ) ;
#61 = SECURITY_CLASSIFICATION_LEVEL ( 'unclassified' ) ;
#62 = PERSON_AND_ORGANIZATION_ROLE ( 'design_supplier' ) ;
#63 = PERSON_AND_ORGANIZATION ( #236, #17 ) ;
#64 = PERSON_AND_ORGANIZATION_ROLE ( 'creator' ) ;
#65 = PERSON_AND_ORGANIZATION ( #236, #17 ) ;
#66 = APPROVAL_DATE_TIME ( #67, #210 ) ;
#67 = DATE_AND_TIME ( #46, #211 ) ;
#68 = APPROVAL_ROLE ( '' ) ;
#69 = APPROVAL_STATUS ( 'not_yet_approved' ) ;
#70 = PERSON_AND_ORGANIZATION ( #236, #17 ) ;
#71 = DATE_TIME_ROLE ( 'creation_date' ) ;
#72 = DATE_AND_TIME ( #33, #207 ) ;
#73 = PERSON_AND_ORGANIZATION_ROLE ( 'creator' ) ;
#74 = PERSON_AND_ORGANIZATION ( #236, #17 ) ;
#75 = APPROVAL_DATE_TIME ( #76, #219 ) ;
#76 = DATE_AND_TIME ( #20, #208 ) ;
#77 = APPROVAL_ROLE ( '' ) ;
#78 = APPROVAL_STATUS ( 'not_yet_approved' ) ;
#79 = PERSON_AND_ORGANIZATION ( #236, #17 ) ;
#80 = APPLICATION_PROTOCOL_DEFINITION ( 'international standard', 'config_control_design', 1994, #4 ) ;
#81 = PERSON_AND_ORGANIZATION_ROLE ( 'design_owner' ) ;
#82 = PERSON_AND_ORGANIZATION ( #236, #17 ) ;
#83 = MECHANICAL_CONTEXT ( 'NONE', #5, 'mechanical' ) ;
#84 = SHAPE_DEFINITION_REPRESENTATION ( #2, #235 ) ;
#85 = DIRECTION ( 'NONE',  ( 1.000000000000000000, 0.0000000000000000000, 0.0000000000000000000 ) ) ;
#86 = DIRECTION ( 'NONE',  ( 0.0000000000000000000, 0.0000000000000000000, 1.000000000000000000 ) ) ;
#87 = CARTESIAN_POINT ( 'NONE',  ( 0.0000000000000000000, 0.0000000000000000000, 0.0000000000000000000 ) ) ;
#88 = APPLICATION_PROTOCOL_DEFINITION ( 'international standard', 'config_control_design', 1994, #5 ) ;
#89 =( NAMED_UNIT ( * ) SI_UNIT ( $, .STERADIAN. ) SOLID_ANGLE_UNIT ( ) );
#90 =( NAMED_UNIT ( * ) PLANE_ANGLE_UNIT ( ) SI_UNIT ( $, .RADIAN. ) );
#91 =( LENGTH_UNIT ( ) NAMED_UNIT ( * ) SI_UNIT ( .MILLI., .METRE. ) );
#92 = DIRECTION ( 'NONE',  ( 1.000000000000000000, 5.421010862427522200E-017, 0.0000000000000000000 ) ) ;
#93 = CARTESIAN_POINT ( 'NONE',  ( -10.00000000000000000, -1.500000000000001100, 500.0000000000000000 ) ) ;
#94 = LINE ( 'NONE', #93, #11 ) ;
#95 = DIRECTION ( 'NONE',  ( -0.0000000000000000000, 1.000000000000000000, -0.0000000000000000000 ) ) ;
#96 = CARTESIAN_POINT ( 'NONE',  ( 10.00000000000000000, 1.500000000000000000, -500.0000000000000000 ) ) ;
#97 = DIRECTION ( 'NONE',  ( -0.0000000000000000000, -0.0000000000000000000, -1.000000000000000000 ) ) ;
#98 = CARTESIAN_POINT ( 'NONE',  ( -10.00000000000000000, -1.500000000000001100, 500.0000000000000000 ) ) ;
#99 = LINE ( 'NONE', #98, #50 ) ;
#100 = DIRECTION ( 'NONE',  ( 0.0000000000000000000, -1.000000000000000000, 0.0000000000000000000 ) ) ;
#101 = CARTESIAN_POINT ( 'NONE',  ( -10.00000000000000000, 1.500000000000001100, 500.0000000000000000 ) ) ;
#102 = LINE ( 'NONE', #101, #27 ) ;
#103 = DIRECTION ( 'NONE',  ( 1.000000000000000000, 5.421010862427522200E-017, 0.0000000000000000000 ) ) ;
#104 = CARTESIAN_POINT ( 'NONE',  ( -10.00000000000000000, -1.500000000000001100, -500.0000000000000000 ) ) ;
#105 = DIRECTION ( 'NONE',  ( -1.000000000000000000, -5.421010862427522200E-017, 0.0000000000000000000 ) ) ;
#106 = CARTESIAN_POINT ( 'NONE',  ( -10.00000000000000000, -1.500000000000001100, 500.0000000000000000 ) ) ;
#107 = DIRECTION ( 'NONE',  ( -0.0000000000000000000, 1.000000000000000000, -0.0000000000000000000 ) ) ;
#108 = LINE ( 'NONE', #110, #47 ) ;
#109 = LINE ( 'NONE', #96, #34 ) ;
#110 = CARTESIAN_POINT ( 'NONE',  ( 10.00000000000000000, 1.500000000000000000, 500.0000000000000000 ) ) ;
#111 = LINE ( 'NONE', #104, #28 ) ;
#112 = DIRECTION ( 'NONE',  ( -5.421010862427522200E-017, 1.000000000000000000, 0.0000000000000000000 ) ) ;
#113 =( GEOMETRIC_REPRESENTATION_CONTEXT ( 3 ) GLOBAL_UNCERTAINTY_ASSIGNED_CONTEXT ( ( #237 ) ) GLOBAL_UNIT_ASSIGNED_CONTEXT ( ( #91, #90, #89 ) ) REPRESENTATION_CONTEXT ( 'NONE', 'WORKASPACE' ) );
#114 = CARTESIAN_POINT ( 'NONE',  ( 10.00000000000000000, -1.500000000000000000, 500.0000000000000000 ) ) ;
#115 = DIRECTION ( 'NONE',  ( -0.0000000000000000000, 0.0000000000000000000, -1.000000000000000000 ) ) ;
#116 = CARTESIAN_POINT ( 'NONE',  ( -10.00000000000000000, 1.500000000000001100, 500.0000000000000000 ) ) ;
#117 = DIRECTION ( 'NONE',  ( 1.000000000000000000, 0.0000000000000000000, 0.0000000000000000000 ) ) ;
#118 = CARTESIAN_POINT ( 'NONE',  ( 10.00000000000000000, 1.500000000000000000, 500.0000000000000000 ) ) ;
#119 = CARTESIAN_POINT ( 'NONE',  ( -10.00000000000000000, 1.500000000000001100, 500.0000000000000000 ) ) ;
#120 = LINE ( 'NONE', #185, #24 ) ;
#121 = DIRECTION ( 'NONE',  ( -0.0000000000000000000, 0.0000000000000000000, 1.000000000000000000 ) ) ;
#122 = CARTESIAN_POINT ( 'NONE',  ( -10.00000000000000000, -1.500000000000001100, 500.0000000000000000 ) ) ;
#123 = CARTESIAN_POINT ( 'NONE',  ( 0.0000000000000000000, 0.0000000000000000000, -500.0000000000000000 ) ) ;
#124 = CARTESIAN_POINT ( 'NONE',  ( -10.00000000000000000, 1.500000000000001100, -500.0000000000000000 ) ) ;
#125 = DIRECTION ( 'NONE',  ( -1.000000000000000000, 0.0000000000000000000, 0.0000000000000000000 ) ) ;
#126 = CARTESIAN_POINT ( 'NONE',  ( 10.00000000000000000, 1.500000000000000000, 500.0000000000000000 ) ) ;
#127 = DIRECTION ( 'NONE',  ( 0.0000000000000000000, 0.0000000000000000000, 1.000000000000000000 ) ) ;
#128 = DIRECTION ( 'NONE',  ( 0.0000000000000000000, -1.000000000000000000, 0.0000000000000000000 ) ) ;
#129 = CARTESIAN_POINT ( 'NONE',  ( 0.0000000000000000000, 0.0000000000000000000, 500.0000000000000000 ) ) ;
#130 = PLANE ( 'NONE',  #10 ) ;
#131 = DIRECTION ( 'NONE',  ( -1.000000000000000000, 5.421010862427522200E-017, -0.0000000000000000000 ) ) ;
#132 = CARTESIAN_POINT ( 'NONE',  ( 10.00000000000000000, -1.500000000000000000, -500.0000000000000000 ) ) ;
#133 = DIRECTION ( 'NONE',  ( -1.000000000000000000, 5.421010862427522200E-017, -0.0000000000000000000 ) ) ;
#134 = DIRECTION ( 'NONE',  ( -0.0000000000000000000, 0.0000000000000000000, 1.000000000000000000 ) ) ;
#135 = LINE ( 'NONE', #116, #19 ) ;
#136 = PLANE ( 'NONE',  #39 ) ;
#137 = PLANE ( 'NONE',  #13 ) ;
#138 = LINE ( 'NONE', #124, #8 ) ;
#139 = DIRECTION ( 'NONE',  ( -0.0000000000000000000, -0.0000000000000000000, -1.000000000000000000 ) ) ;
#140 = CARTESIAN_POINT ( 'NONE',  ( 10.00000000000000000, 1.500000000000000000, 500.0000000000000000 ) ) ;
#141 = PLANE ( 'NONE',  #9 ) ;
#142 = PLANE ( 'NONE',  #51 ) ;
#143 = DIRECTION ( 'NONE',  ( 1.000000000000000000, 0.0000000000000000000, -0.0000000000000000000 ) ) ;
#144 = DIRECTION ( 'NONE',  ( 1.000000000000000000, 0.0000000000000000000, 0.0000000000000000000 ) ) ;
#145 = LINE ( 'NONE', #140, #6 ) ;
#146 = CARTESIAN_POINT ( 'NONE',  ( -10.00000000000000000, 1.500000000000001100, 500.0000000000000000 ) ) ;
#147 = VERTEX_POINT ( 'NONE', #122 ) ;
#148 = VERTEX_POINT ( 'NONE', #193 ) ;
#149 = VERTEX_POINT ( 'NONE', #118 ) ;
#150 = VERTEX_POINT ( 'NONE', #194 ) ;
#151 = VERTEX_POINT ( 'NONE', #114 ) ;
#152 = VERTEX_POINT ( 'NONE', #119 ) ;
#153 = VERTEX_POINT ( 'NONE', #132 ) ;
#154 = VERTEX_POINT ( 'NONE', #196 ) ;
#155 = ORIENTED_EDGE ( 'NONE', *, *, #212, .T. ) ;
#156 = ORIENTED_EDGE ( 'NONE', *, *, #228, .F. ) ;
#157 = ORIENTED_EDGE ( 'NONE', *, *, #206, .F. ) ;
#158 = ORIENTED_EDGE ( 'NONE', *, *, #231, .F. ) ;
#159 = ORIENTED_EDGE ( 'NONE', *, *, #230, .F. ) ;
#160 = ORIENTED_EDGE ( 'NONE', *, *, #220, .F. ) ;
#161 = ORIENTED_EDGE ( 'NONE', *, *, #223, .F. ) ;
#162 = ORIENTED_EDGE ( 'NONE', *, *, #227, .F. ) ;
#163 = ORIENTED_EDGE ( 'NONE', *, *, #225, .T. ) ;
#164 = ORIENTED_EDGE ( 'NONE', *, *, #231, .T. ) ;
#165 = ORIENTED_EDGE ( 'NONE', *, *, #228, .T. ) ;
#166 = ORIENTED_EDGE ( 'NONE', *, *, #217, .T. ) ;
#167 = ORIENTED_EDGE ( 'NONE', *, *, #224, .T. ) ;
#168 = ORIENTED_EDGE ( 'NONE', *, *, #212, .F. ) ;
#169 = ORIENTED_EDGE ( 'NONE', *, *, #224, .F. ) ;
#170 = ORIENTED_EDGE ( 'NONE', *, *, #220, .T. ) ;
#171 = ORIENTED_EDGE ( 'NONE', *, *, #225, .F. ) ;
#172 = ORIENTED_EDGE ( 'NONE', *, *, #217, .F. ) ;
#173 = ORIENTED_EDGE ( 'NONE', *, *, #206, .T. ) ;
#174 = ORIENTED_EDGE ( 'NONE', *, *, #227, .T. ) ;
#175 = ORIENTED_EDGE ( 'NONE', *, *, #230, .T. ) ;
#176 = ORIENTED_EDGE ( 'NONE', *, *, #229, .T. ) ;
#177 = ORIENTED_EDGE ( 'NONE', *, *, #223, .T. ) ;
#178 = ORIENTED_EDGE ( 'NONE', *, *, #229, .F. ) ;
#179 = EDGE_LOOP ( 'NONE', ( #174, #157, #158, #176 ) ) ;
#180 = EDGE_LOOP ( 'NONE', ( #175, #172, #171, #173 ) ) ;
#181 = EDGE_LOOP ( 'NONE', ( #177, #178, #156, #155 ) ) ;
#182 = EDGE_LOOP ( 'NONE', ( #170, #168, #169, #166 ) ) ;
#183 = EDGE_LOOP ( 'NONE', ( #165, #164, #163, #167 ) ) ;
#184 = EDGE_LOOP ( 'NONE', ( #161, #160, #159, #162 ) ) ;
#185 = CARTESIAN_POINT ( 'NONE',  ( -10.00000000000000000, 1.500000000000001100, -500.0000000000000000 ) ) ;
#186 = DIRECTION ( 'NONE',  ( -0.0000000000000000000, -0.0000000000000000000, -1.000000000000000000 ) ) ;
#187 = LINE ( 'NONE', #189, #26 ) ;
#188 = CARTESIAN_POINT ( 'NONE',  ( -10.00000000000000000, 1.500000000000001100, 500.0000000000000000 ) ) ;
#189 = CARTESIAN_POINT ( 'NONE',  ( -10.00000000000000000, 1.500000000000001100, 500.0000000000000000 ) ) ;
#190 = DIRECTION ( 'NONE',  ( -5.421010862427522200E-017, -1.000000000000000000, 0.0000000000000000000 ) ) ;
#191 = DIRECTION ( 'NONE',  ( -0.0000000000000000000, -0.0000000000000000000, -1.000000000000000000 ) ) ;
#192 = DIRECTION ( 'NONE',  ( 1.000000000000000000, -5.421010862427522200E-017, 0.0000000000000000000 ) ) ;
#193 = CARTESIAN_POINT ( 'NONE',  ( -10.00000000000000000, -1.500000000000001100, -500.0000000000000000 ) ) ;
#194 = CARTESIAN_POINT ( 'NONE',  ( 10.00000000000000000, 1.500000000000000000, -500.0000000000000000 ) ) ;
#195 = PLANE ( 'NONE',  #30 ) ;
#196 = CARTESIAN_POINT ( 'NONE',  ( -10.00000000000000000, 1.500000000000001100, -500.0000000000000000 ) ) ;
#197 = LINE ( 'NONE', #198, #41 ) ;
#198 = CARTESIAN_POINT ( 'NONE',  ( 10.00000000000000000, -1.500000000000000000, 500.0000000000000000 ) ) ;
#199 = APPROVAL ( #55, 'UNSPECIFIED' ) ;
#200 = CC_DESIGN_DATE_AND_TIME_ASSIGNMENT ( #58, #57, ( #18 ) ) ;
#201 = LOCAL_TIME ( 15, 31, 29.00000000000000000, #38 ) ;
#202 = CC_DESIGN_PERSON_AND_ORGANIZATION_ASSIGNMENT ( #60, #59, ( #18 ) ) ;
#203 = CC_DESIGN_PERSON_AND_ORGANIZATION_ASSIGNMENT ( #63, #62, ( #14 ) ) ;
#204 = CC_DESIGN_PERSON_AND_ORGANIZATION_ASSIGNMENT ( #65, #64, ( #14 ) ) ;
#205 = CC_DESIGN_PERSON_AND_ORGANIZATION_ASSIGNMENT ( #74, #73, ( #232 ) ) ;
#206 = EDGE_CURVE ( 'NONE', #151, #153, #197, .T. ) ;
#207 = LOCAL_TIME ( 15, 31, 29.00000000000000000, #36 ) ;
#208 = LOCAL_TIME ( 15, 31, 29.00000000000000000, #21 ) ;
#209 = CC_DESIGN_DATE_AND_TIME_ASSIGNMENT ( #72, #71, ( #232 ) ) ;
#210 = APPROVAL ( #69, 'UNSPECIFIED' ) ;
#211 = LOCAL_TIME ( 15, 31, 29.00000000000000000, #12 ) ;
#212 = EDGE_CURVE ( 'NONE', #152, #154, #187, .T. ) ;
#213 = ADVANCED_FACE ( 'NONE', ( #16 ), #195, .F. ) ;
#214 = ADVANCED_FACE ( 'NONE', ( #37 ), #142, .F. ) ;
#215 = CC_DESIGN_PERSON_AND_ORGANIZATION_ASSIGNMENT ( #82, #81, ( #234 ) ) ;
#216 = ADVANCED_FACE ( 'NONE', ( #25 ), #137, .F. ) ;
#217 = EDGE_CURVE ( 'NONE', #149, #150, #145, .T. ) ;
#218 = LOCAL_TIME ( 15, 31, 29.00000000000000000, #49 ) ;
#219 = APPROVAL ( #78, 'UNSPECIFIED' ) ;
#220 = EDGE_CURVE ( 'NONE', #150, #154, #138, .T. ) ;
#221 = ADVANCED_FACE ( 'NONE', ( #35 ), #141, .T. ) ;
#222 = ADVANCED_FACE ( 'NONE', ( #32 ), #130, .F. ) ;
#223 = EDGE_CURVE ( 'NONE', #154, #148, #120, .T. ) ;
#224 = EDGE_CURVE ( 'NONE', #149, #152, #135, .T. ) ;
#225 = EDGE_CURVE ( 'NONE', #151, #149, #108, .T. ) ;
#226 = ADVANCED_FACE ( 'NONE', ( #40 ), #136, .F. ) ;
#227 = EDGE_CURVE ( 'NONE', #148, #153, #111, .T. ) ;
#228 = EDGE_CURVE ( 'NONE', #152, #147, #102, .T. ) ;
#229 = EDGE_CURVE ( 'NONE', #147, #148, #99, .T. ) ;
#230 = EDGE_CURVE ( 'NONE', #153, #150, #109, .T. ) ;
#231 = EDGE_CURVE ( 'NONE', #147, #151, #94, .T. ) ;
#232 = PRODUCT_DEFINITION ( 'UNKNOWN', '', #14, #3 ) ;
#233 = PRODUCT_RELATED_PRODUCT_CATEGORY ( 'detail', '', ( #234 ) ) ;
#234 = PRODUCT ( 'sone3D', 'sone3D', '', ( #83 ) ) ;
#235 = ADVANCED_BREP_SHAPE_REPRESENTATION ( 'sone3D', ( #1, #48 ), #113 ) ;
#236 = PERSON ( 'UNSPECIFIED', 'UNSPECIFIED', 'UNSPECIFIED', ('UNSPECIFIED'), ('UNSPECIFIED'), ('UNSPECIFIED') ) ;
#237 = UNCERTAINTY_MEASURE_WITH_UNIT (LENGTH_MEASURE( 1.000000000000000100E-005 ), #91, 'distance_accuracy_value', 'NONE');
ENDSEC;
END-ISO-10303-21;
