ISO-10303-21;
HEADER;
FILE_DESCRIPTION (( 'STEP AP203' ),
    '1' );
FILE_NAME ('sone3D.STEP',
    '2013-08-09T06:31:05',
    ( '' ),
    ( '' ),
    'SwSTEP 2.0',
    'SolidWorks 2012',
    '' );
FILE_SCHEMA (( 'CONFIG_CONTROL_DESIGN' ));
ENDSEC;

DATA;
#1 = MANIFOLD_SOLID_BREP ( 'ÎÞ½ - µoµ1', #6 ) ;
#2 = PRODUCT_DEFINITION_SHAPE ( 'NONE', 'NONE',  #232 ) ;
#3 = DESIGN_CONTEXT ( 'detailed design', #198, 'design' ) ;
#4 = FACE_OUTER_BOUND ( 'NONE', #172, .T. ) ;
#5 = AXIS2_PLACEMENT_3D ( 'NONE', #102, #101, #100 ) ;
#6 = CLOSED_SHELL ( 'NONE', ( #217, #225, #221, #214, #216, #220 ) ) ;
#7 = CALENDAR_DATE ( 2013, 9, 8 ) ;
#8 = CC_DESIGN_APPROVAL ( #218, ( #232 ) ) ;
#9 = VECTOR ( 'NONE', #114, 1000.000000000000000 ) ;
#10 = VECTOR ( 'NONE', #185, 1000.000000000000000 ) ;
#11 = VECTOR ( 'NONE', #195, 1000.000000000000000 ) ;
#12 = CALENDAR_DATE ( 2013, 9, 8 ) ;
#13 = VECTOR ( 'NONE', #152, 1000.000000000000000 ) ;
#14 = SECURITY_CLASSIFICATION ( '', '', #59 ) ;
#15 = COORDINATED_UNIVERSAL_TIME_OFFSET ( 9, 0, .AHEAD. ) ;
#16 = VECTOR ( 'NONE', #187, 1000.000000000000000 ) ;
#17 = VECTOR ( 'NONE', #129, 1000.000000000000000 ) ;
#18 = AXIS2_PLACEMENT_3D ( 'NONE', #117, #111, #137 ) ;
#19 = APPROVAL_PERSON_ORGANIZATION ( #77, #218, #75 ) ;
#20 = PRODUCT_DEFINITION_FORMATION_WITH_SPECIFIED_SOURCE ( 'ANY', '', #234, .NOT_KNOWN. ) ;
#21 = CALENDAR_DATE ( 2013, 9, 8 ) ;
#22 = VECTOR ( 'NONE', #123, 1000.000000000000000 ) ;
#23 = COORDINATED_UNIVERSAL_TIME_OFFSET ( 9, 0, .AHEAD. ) ;
#24 = COORDINATED_UNIVERSAL_TIME_OFFSET ( 9, 0, .AHEAD. ) ;
#25 = CALENDAR_DATE ( 2013, 9, 8 ) ;
#26 = CALENDAR_DATE ( 2013, 9, 8 ) ;
#27 = AXIS2_PLACEMENT_3D ( 'NONE', #128, #130, #132 ) ;
#28 = VECTOR ( 'NONE', #103, 1000.000000000000000 ) ;
#29 = CC_DESIGN_APPROVAL ( #199, ( #14 ) ) ;
#30 = COORDINATED_UNIVERSAL_TIME_OFFSET ( 9, 0, .AHEAD. ) ;
#31 = AXIS2_PLACEMENT_3D ( 'NONE', #121, #122, #120 ) ;
#32 = FACE_OUTER_BOUND ( 'NONE', #171, .T. ) ;
#33 = FACE_OUTER_BOUND ( 'NONE', #170, .T. ) ;
#34 = VECTOR ( 'NONE', #92, 1000.000000000000000 ) ;
#35 = COORDINATED_UNIVERSAL_TIME_OFFSET ( 9, 0, .AHEAD. ) ;
#36 = VECTOR ( 'NONE', #183, 1000.000000000000000 ) ;
#37 = FACE_OUTER_BOUND ( 'NONE', #175, .T. ) ;
#38 = FACE_OUTER_BOUND ( 'NONE', #174, .T. ) ;
#39 = APPROVAL_PERSON_ORGANIZATION ( #68, #211, #66 ) ;
#40 = FACE_OUTER_BOUND ( 'NONE', #173, .T. ) ;
#41 = APPROVAL_PERSON_ORGANIZATION ( #54, #199, #52 ) ;
#42 = VECTOR ( 'NONE', #90, 1000.000000000000000 ) ;
#43 = AXIS2_PLACEMENT_3D ( 'NONE', #133, #136, #134 ) ;
#44 = AXIS2_PLACEMENT_3D ( 'NONE', #85, #84, #83 ) ;
#45 = VECTOR ( 'NONE', #97, 1000.000000000000000 ) ;
#46 = ORGANIZATION ( 'UNSPECIFIED', 'UNSPECIFIED', '' ) ;
#47 = CC_DESIGN_SECURITY_CLASSIFICATION ( #14, ( #20 ) ) ;
#48 = AXIS2_PLACEMENT_3D ( 'NONE', #135, #109, #110 ) ;
#49 = CC_DESIGN_APPROVAL ( #211, ( #20 ) ) ;
#50 = APPROVAL_DATE_TIME ( #51, #199 ) ;
#51 = DATE_AND_TIME ( #25, #230 ) ;
#52 = APPROVAL_ROLE ( '' ) ;
#53 = APPROVAL_STATUS ( 'not_yet_approved' ) ;
#54 = PERSON_AND_ORGANIZATION ( #235, #46 ) ;
#55 = DATE_TIME_ROLE ( 'classification_date' ) ;
#56 = DATE_AND_TIME ( #26, #201 ) ;
#57 = PERSON_AND_ORGANIZATION_ROLE ( 'classification_officer' ) ;
#58 = PERSON_AND_ORGANIZATION ( #235, #46 ) ;
#59 = SECURITY_CLASSIFICATION_LEVEL ( 'unclassified' ) ;
#60 = PERSON_AND_ORGANIZATION_ROLE ( 'design_supplier' ) ;
#61 = PERSON_AND_ORGANIZATION ( #235, #46 ) ;
#62 = PERSON_AND_ORGANIZATION_ROLE ( 'creator' ) ;
#63 = PERSON_AND_ORGANIZATION ( #235, #46 ) ;
#64 = APPROVAL_DATE_TIME ( #65, #211 ) ;
#65 = DATE_AND_TIME ( #21, #212 ) ;
#66 = APPROVAL_ROLE ( '' ) ;
#67 = APPROVAL_STATUS ( 'not_yet_approved' ) ;
#68 = PERSON_AND_ORGANIZATION ( #235, #46 ) ;
#69 = DATE_TIME_ROLE ( 'creation_date' ) ;
#70 = DATE_AND_TIME ( #12, #206 ) ;
#71 = PERSON_AND_ORGANIZATION_ROLE ( 'creator' ) ;
#72 = PERSON_AND_ORGANIZATION ( #235, #46 ) ;
#73 = APPROVAL_DATE_TIME ( #74, #218 ) ;
#74 = DATE_AND_TIME ( #7, #208 ) ;
#75 = APPROVAL_ROLE ( '' ) ;
#76 = APPROVAL_STATUS ( 'not_yet_approved' ) ;
#77 = PERSON_AND_ORGANIZATION ( #235, #46 ) ;
#78 = APPLICATION_PROTOCOL_DEFINITION ( 'international standard', 'config_control_design', 1994, #198 ) ;
#79 = PERSON_AND_ORGANIZATION_ROLE ( 'design_owner' ) ;
#80 = PERSON_AND_ORGANIZATION ( #235, #46 ) ;
#81 = MECHANICAL_CONTEXT ( 'NONE', #197, 'mechanical' ) ;
#82 = SHAPE_DEFINITION_REPRESENTATION ( #2, #236 ) ;
#83 = DIRECTION ( 'NONE',  ( 1.000000000000000000, 0.0000000000000000000, 0.0000000000000000000 ) ) ;
#84 = DIRECTION ( 'NONE',  ( 0.0000000000000000000, 0.0000000000000000000, 1.000000000000000000 ) ) ;
#85 = CARTESIAN_POINT ( 'NONE',  ( 0.0000000000000000000, 0.0000000000000000000, 0.0000000000000000000 ) ) ;
#86 = APPLICATION_PROTOCOL_DEFINITION ( 'international standard', 'config_control_design', 1994, #197 ) ;
#87 =( NAMED_UNIT ( * ) SI_UNIT ( $, .STERADIAN. ) SOLID_ANGLE_UNIT ( ) );
#88 =( NAMED_UNIT ( * ) PLANE_ANGLE_UNIT ( ) SI_UNIT ( $, .RADIAN. ) );
#89 =( LENGTH_UNIT ( ) NAMED_UNIT ( * ) SI_UNIT ( .MILLI., .METRE. ) );
#90 = DIRECTION ( 'NONE',  ( 1.000000000000000000, 4.336808689942017700E-017, 0.0000000000000000000 ) ) ;
#91 = CARTESIAN_POINT ( 'NONE',  ( -7.500000000000000000, -1.500000000000000700, 500.0000000000000000 ) ) ;
#92 = DIRECTION ( 'NONE',  ( -0.0000000000000000000, 1.000000000000000000, -0.0000000000000000000 ) ) ;
#93 = LINE ( 'NONE', #91, #42 ) ;
#94 = CARTESIAN_POINT ( 'NONE',  ( 7.500000000000000000, 1.500000000000000000, -500.0000000000000000 ) ) ;
#95 =( GEOMETRIC_REPRESENTATION_CONTEXT ( 3 ) GLOBAL_UNCERTAINTY_ASSIGNED_CONTEXT ( ( #237 ) ) GLOBAL_UNIT_ASSIGNED_CONTEXT ( ( #89, #88, #87 ) ) REPRESENTATION_CONTEXT ( 'NONE', 'WORKASPACE' ) );
#96 = LINE ( 'NONE', #151, #13 ) ;
#97 = DIRECTION ( 'NONE',  ( -0.0000000000000000000, -0.0000000000000000000, -1.000000000000000000 ) ) ;
#98 = CARTESIAN_POINT ( 'NONE',  ( -7.500000000000000000, -1.500000000000000700, 500.0000000000000000 ) ) ;
#99 = LINE ( 'NONE', #98, #45 ) ;
#100 = DIRECTION ( 'NONE',  ( -1.000000000000000000, -4.336808689942017700E-017, 0.0000000000000000000 ) ) ;
#101 = DIRECTION ( 'NONE',  ( -4.336808689942017700E-017, 1.000000000000000000, 0.0000000000000000000 ) ) ;
#102 = CARTESIAN_POINT ( 'NONE',  ( -7.500000000000000000, -1.500000000000000700, 500.0000000000000000 ) ) ;
#103 = DIRECTION ( 'NONE',  ( -0.0000000000000000000, 1.000000000000000000, -0.0000000000000000000 ) ) ;
#104 = LINE ( 'NONE', #105, #28 ) ;
#105 = CARTESIAN_POINT ( 'NONE',  ( 7.500000000000000000, 1.500000000000000000, 500.0000000000000000 ) ) ;
#106 = CARTESIAN_POINT ( 'NONE',  ( 7.500000000000000000, 1.500000000000000000, 500.0000000000000000 ) ) ;
#107 = PLANE ( 'NONE',  #27 ) ;
#108 = LINE ( 'NONE', #106, #17 ) ;
#109 = DIRECTION ( 'NONE',  ( 1.000000000000000000, 0.0000000000000000000, -0.0000000000000000000 ) ) ;
#110 = DIRECTION ( 'NONE',  ( -0.0000000000000000000, 0.0000000000000000000, -1.000000000000000000 ) ) ;
#111 = DIRECTION ( 'NONE',  ( -1.000000000000000000, 0.0000000000000000000, 0.0000000000000000000 ) ) ;
#112 = PLANE ( 'NONE',  #5 ) ;
#113 = PLANE ( 'NONE',  #48 ) ;
#114 = DIRECTION ( 'NONE',  ( 0.0000000000000000000, -1.000000000000000000, 0.0000000000000000000 ) ) ;
#115 = LINE ( 'NONE', #119, #9 ) ;
#116 = PLANE ( 'NONE',  #18 ) ;
#117 = CARTESIAN_POINT ( 'NONE',  ( 7.500000000000000000, 1.500000000000000000, 500.0000000000000000 ) ) ;
#118 = LINE ( 'NONE', #124, #22 ) ;
#119 = CARTESIAN_POINT ( 'NONE',  ( -7.500000000000000000, 1.500000000000000700, -500.0000000000000000 ) ) ;
#120 = DIRECTION ( 'NONE',  ( 1.000000000000000000, 0.0000000000000000000, 0.0000000000000000000 ) ) ;
#121 = CARTESIAN_POINT ( 'NONE',  ( 0.0000000000000000000, 0.0000000000000000000, -500.0000000000000000 ) ) ;
#122 = DIRECTION ( 'NONE',  ( -0.0000000000000000000, 0.0000000000000000000, 1.000000000000000000 ) ) ;
#123 = DIRECTION ( 'NONE',  ( -1.000000000000000000, 4.336808689942017700E-017, -0.0000000000000000000 ) ) ;
#124 = CARTESIAN_POINT ( 'NONE',  ( -7.500000000000000000, 1.500000000000000700, 500.0000000000000000 ) ) ;
#125 = PLANE ( 'NONE',  #31 ) ;
#126 = CARTESIAN_POINT ( 'NONE',  ( -7.500000000000000000, -1.500000000000000700, 500.0000000000000000 ) ) ;
#127 = CARTESIAN_POINT ( 'NONE',  ( 7.500000000000000000, 1.500000000000000000, -500.0000000000000000 ) ) ;
#128 = CARTESIAN_POINT ( 'NONE',  ( 0.0000000000000000000, 0.0000000000000000000, 500.0000000000000000 ) ) ;
#129 = DIRECTION ( 'NONE',  ( -0.0000000000000000000, -0.0000000000000000000, -1.000000000000000000 ) ) ;
#130 = DIRECTION ( 'NONE',  ( -0.0000000000000000000, 0.0000000000000000000, 1.000000000000000000 ) ) ;
#131 = CARTESIAN_POINT ( 'NONE',  ( -7.500000000000000000, 1.500000000000000700, 500.0000000000000000 ) ) ;
#132 = DIRECTION ( 'NONE',  ( 1.000000000000000000, 0.0000000000000000000, 0.0000000000000000000 ) ) ;
#133 = CARTESIAN_POINT ( 'NONE',  ( -7.500000000000000000, 1.500000000000000700, 500.0000000000000000 ) ) ;
#134 = DIRECTION ( 'NONE',  ( 1.000000000000000000, -4.336808689942017700E-017, 0.0000000000000000000 ) ) ;
#135 = CARTESIAN_POINT ( 'NONE',  ( -7.500000000000000000, 1.500000000000000700, 500.0000000000000000 ) ) ;
#136 = DIRECTION ( 'NONE',  ( -4.336808689942017700E-017, -1.000000000000000000, 0.0000000000000000000 ) ) ;
#137 = DIRECTION ( 'NONE',  ( 0.0000000000000000000, 0.0000000000000000000, 1.000000000000000000 ) ) ;
#138 = CARTESIAN_POINT ( 'NONE',  ( 7.500000000000000000, -1.500000000000000000, -500.0000000000000000 ) ) ;
#139 = ORIENTED_EDGE ( 'NONE', *, *, #227, .F. ) ;
#140 = ORIENTED_EDGE ( 'NONE', *, *, #229, .F. ) ;
#141 = ORIENTED_EDGE ( 'NONE', *, *, #210, .F. ) ;
#142 = ORIENTED_EDGE ( 'NONE', *, *, #222, .F. ) ;
#143 = ORIENTED_EDGE ( 'NONE', *, *, #228, .F. ) ;
#144 = ORIENTED_EDGE ( 'NONE', *, *, #224, .T. ) ;
#145 = ORIENTED_EDGE ( 'NONE', *, *, #231, .T. ) ;
#146 = ORIENTED_EDGE ( 'NONE', *, *, #227, .T. ) ;
#147 = ORIENTED_EDGE ( 'NONE', *, *, #219, .T. ) ;
#148 = ORIENTED_EDGE ( 'NONE', *, *, #223, .T. ) ;
#149 = ORIENTED_EDGE ( 'NONE', *, *, #213, .F. ) ;
#150 = ORIENTED_EDGE ( 'NONE', *, *, #223, .F. ) ;
#151 = CARTESIAN_POINT ( 'NONE',  ( -7.500000000000000000, 1.500000000000000700, 500.0000000000000000 ) ) ;
#152 = DIRECTION ( 'NONE',  ( 0.0000000000000000000, -1.000000000000000000, 0.0000000000000000000 ) ) ;
#153 = LINE ( 'NONE', #163, #11 ) ;
#154 = LINE ( 'NONE', #156, #10 ) ;
#155 = ORIENTED_EDGE ( 'NONE', *, *, #210, .T. ) ;
#156 = CARTESIAN_POINT ( 'NONE',  ( -7.500000000000000000, 1.500000000000000700, -500.0000000000000000 ) ) ;
#157 = ORIENTED_EDGE ( 'NONE', *, *, #224, .F. ) ;
#158 = ORIENTED_EDGE ( 'NONE', *, *, #219, .F. ) ;
#159 = ORIENTED_EDGE ( 'NONE', *, *, #207, .T. ) ;
#160 = ORIENTED_EDGE ( 'NONE', *, *, #213, .T. ) ;
#161 = ORIENTED_EDGE ( 'NONE', *, *, #229, .T. ) ;
#162 = VERTEX_POINT ( 'NONE', #127 ) ;
#163 = CARTESIAN_POINT ( 'NONE',  ( -7.500000000000000000, -1.500000000000000700, -500.0000000000000000 ) ) ;
#164 = ORIENTED_EDGE ( 'NONE', *, *, #231, .F. ) ;
#165 = ORIENTED_EDGE ( 'NONE', *, *, #228, .T. ) ;
#166 = ORIENTED_EDGE ( 'NONE', *, *, #226, .T. ) ;
#167 = ORIENTED_EDGE ( 'NONE', *, *, #207, .F. ) ;
#168 = ORIENTED_EDGE ( 'NONE', *, *, #222, .T. ) ;
#169 = ORIENTED_EDGE ( 'NONE', *, *, #226, .F. ) ;
#170 = EDGE_LOOP ( 'NONE', ( #165, #167, #164, #166 ) ) ;
#171 = EDGE_LOOP ( 'NONE', ( #161, #158, #157, #159 ) ) ;
#172 = EDGE_LOOP ( 'NONE', ( #168, #169, #139, #160 ) ) ;
#173 = EDGE_LOOP ( 'NONE', ( #155, #149, #150, #147 ) ) ;
#174 = EDGE_LOOP ( 'NONE', ( #146, #145, #144, #148 ) ) ;
#175 = EDGE_LOOP ( 'NONE', ( #142, #141, #140, #143 ) ) ;
#176 = VERTEX_POINT ( 'NONE', #188 ) ;
#177 = VERTEX_POINT ( 'NONE', #131 ) ;
#178 = VERTEX_POINT ( 'NONE', #189 ) ;
#179 = VERTEX_POINT ( 'NONE', #126 ) ;
#180 = VERTEX_POINT ( 'NONE', #138 ) ;
#181 = VERTEX_POINT ( 'NONE', #191 ) ;
#182 = VERTEX_POINT ( 'NONE', #192 ) ;
#183 = DIRECTION ( 'NONE',  ( -0.0000000000000000000, -0.0000000000000000000, -1.000000000000000000 ) ) ;
#184 = LINE ( 'NONE', #186, #16 ) ;
#185 = DIRECTION ( 'NONE',  ( -1.000000000000000000, 4.336808689942017700E-017, -0.0000000000000000000 ) ) ;
#186 = CARTESIAN_POINT ( 'NONE',  ( -7.500000000000000000, 1.500000000000000700, 500.0000000000000000 ) ) ;
#187 = DIRECTION ( 'NONE',  ( -0.0000000000000000000, -0.0000000000000000000, -1.000000000000000000 ) ) ;
#188 = CARTESIAN_POINT ( 'NONE',  ( 7.500000000000000000, -1.500000000000000000, 500.0000000000000000 ) ) ;
#189 = CARTESIAN_POINT ( 'NONE',  ( -7.500000000000000000, 1.500000000000000700, -500.0000000000000000 ) ) ;
#190 = PLANE ( 'NONE',  #43 ) ;
#191 = CARTESIAN_POINT ( 'NONE',  ( -7.500000000000000000, -1.500000000000000700, -500.0000000000000000 ) ) ;
#192 = CARTESIAN_POINT ( 'NONE',  ( 7.500000000000000000, 1.500000000000000000, 500.0000000000000000 ) ) ;
#193 = LINE ( 'NONE', #194, #36 ) ;
#194 = CARTESIAN_POINT ( 'NONE',  ( 7.500000000000000000, -1.500000000000000000, 500.0000000000000000 ) ) ;
#195 = DIRECTION ( 'NONE',  ( 1.000000000000000000, 4.336808689942017700E-017, 0.0000000000000000000 ) ) ;
#196 = LINE ( 'NONE', #94, #34 ) ;
#197 = APPLICATION_CONTEXT ( 'configuration controlled 3d designs of mechanical parts and assemblies' ) ;
#198 = APPLICATION_CONTEXT ( 'configuration controlled 3d designs of mechanical parts and assemblies' ) ;
#199 = APPROVAL ( #53, 'UNSPECIFIED' ) ;
#200 = CC_DESIGN_DATE_AND_TIME_ASSIGNMENT ( #56, #55, ( #14 ) ) ;
#201 = LOCAL_TIME ( 15, 31, 5.000000000000000000, #15 ) ;
#202 = CC_DESIGN_PERSON_AND_ORGANIZATION_ASSIGNMENT ( #58, #57, ( #14 ) ) ;
#203 = CC_DESIGN_PERSON_AND_ORGANIZATION_ASSIGNMENT ( #61, #60, ( #20 ) ) ;
#204 = CC_DESIGN_PERSON_AND_ORGANIZATION_ASSIGNMENT ( #63, #62, ( #20 ) ) ;
#205 = CC_DESIGN_PERSON_AND_ORGANIZATION_ASSIGNMENT ( #72, #71, ( #232 ) ) ;
#206 = LOCAL_TIME ( 15, 31, 5.000000000000000000, #23 ) ;
#207 = EDGE_CURVE ( 'NONE', #176, #180, #193, .T. ) ;
#208 = LOCAL_TIME ( 15, 31, 5.000000000000000000, #30 ) ;
#209 = CC_DESIGN_DATE_AND_TIME_ASSIGNMENT ( #70, #69, ( #232 ) ) ;
#210 = EDGE_CURVE ( 'NONE', #162, #178, #154, .T. ) ;
#211 = APPROVAL ( #67, 'UNSPECIFIED' ) ;
#212 = LOCAL_TIME ( 15, 31, 5.000000000000000000, #35 ) ;
#213 = EDGE_CURVE ( 'NONE', #177, #178, #184, .T. ) ;
#214 = ADVANCED_FACE ( 'NONE', ( #40 ), #190, .F. ) ;
#215 = CC_DESIGN_PERSON_AND_ORGANIZATION_ASSIGNMENT ( #80, #79, ( #234 ) ) ;
#216 = ADVANCED_FACE ( 'NONE', ( #38 ), #107, .T. ) ;
#217 = ADVANCED_FACE ( 'NONE', ( #4 ), #113, .F. ) ;
#218 = APPROVAL ( #76, 'UNSPECIFIED' ) ;
#219 = EDGE_CURVE ( 'NONE', #182, #162, #108, .T. ) ;
#220 = ADVANCED_FACE ( 'NONE', ( #37 ), #125, .F. ) ;
#221 = ADVANCED_FACE ( 'NONE', ( #32 ), #116, .F. ) ;
#222 = EDGE_CURVE ( 'NONE', #178, #181, #115, .T. ) ;
#223 = EDGE_CURVE ( 'NONE', #182, #177, #118, .T. ) ;
#224 = EDGE_CURVE ( 'NONE', #176, #182, #104, .T. ) ;
#225 = ADVANCED_FACE ( 'NONE', ( #33 ), #112, .F. ) ;
#226 = EDGE_CURVE ( 'NONE', #179, #181, #99, .T. ) ;
#227 = EDGE_CURVE ( 'NONE', #177, #179, #96, .T. ) ;
#228 = EDGE_CURVE ( 'NONE', #181, #180, #153, .T. ) ;
#229 = EDGE_CURVE ( 'NONE', #180, #162, #196, .T. ) ;
#230 = LOCAL_TIME ( 15, 31, 5.000000000000000000, #24 ) ;
#231 = EDGE_CURVE ( 'NONE', #179, #176, #93, .T. ) ;
#232 = PRODUCT_DEFINITION ( 'UNKNOWN', '', #20, #3 ) ;
#233 = PRODUCT_RELATED_PRODUCT_CATEGORY ( 'detail', '', ( #234 ) ) ;
#234 = PRODUCT ( 'sone3D', 'sone3D', '', ( #81 ) ) ;
#235 = PERSON ( 'UNSPECIFIED', 'UNSPECIFIED', 'UNSPECIFIED', ('UNSPECIFIED'), ('UNSPECIFIED'), ('UNSPECIFIED') ) ;
#236 = ADVANCED_BREP_SHAPE_REPRESENTATION ( 'sone3D', ( #1, #44 ), #95 ) ;
#237 = UNCERTAINTY_MEASURE_WITH_UNIT (LENGTH_MEASURE( 1.000000000000000100E-005 ), #89, 'distance_accuracy_value', 'NONE');
ENDSEC;
END-ISO-10303-21;
