ISO-10303-21;
HEADER;
FILE_DESCRIPTION (( 'STEP AP203' ),
    '1' );
FILE_NAME ('sone3D.STEP',
    '2013-08-09T06:30:08',
    ( '' ),
    ( '' ),
    'SwSTEP 2.0',
    'SolidWorks 2012',
    '' );
FILE_SCHEMA (( 'CONFIG_CONTROL_DESIGN' ));
ENDSEC;

DATA;
#1 = PRODUCT_DEFINITION_SHAPE ( 'NONE', 'NONE',  #232 ) ;
#2 = DESIGN_CONTEXT ( 'detailed design', #4, 'design' ) ;
#3 = MANIFOLD_SOLID_BREP ( 'ÎÞ½ - µoµ1', #25 ) ;
#4 = APPLICATION_CONTEXT ( 'configuration controlled 3d designs of mechanical parts and assemblies' ) ;
#5 = APPLICATION_CONTEXT ( 'configuration controlled 3d designs of mechanical parts and assemblies' ) ;
#6 = CALENDAR_DATE ( 2013, 9, 8 ) ;
#7 = VECTOR ( 'NONE', #77, 1000.000000000000000 ) ;
#8 = FACE_OUTER_BOUND ( 'NONE', #90, .T. ) ;
#9 = CALENDAR_DATE ( 2013, 9, 8 ) ;
#10 = APPROVAL_PERSON_ORGANIZATION ( #171, #203, #173 ) ;
#11 = COORDINATED_UNIVERSAL_TIME_OFFSET ( 9, 0, .AHEAD. ) ;
#12 = COORDINATED_UNIVERSAL_TIME_OFFSET ( 9, 0, .AHEAD. ) ;
#13 = CC_DESIGN_APPROVAL ( #199, ( #40 ) ) ;
#14 = CALENDAR_DATE ( 2013, 9, 8 ) ;
#15 = VECTOR ( 'NONE', #94, 1000.000000000000000 ) ;
#16 = ORGANIZATION ( 'UNSPECIFIED', 'UNSPECIFIED', '' ) ;
#17 = AXIS2_PLACEMENT_3D ( 'NONE', #163, #164, #165 ) ;
#18 = CALENDAR_DATE ( 2013, 9, 8 ) ;
#19 = CALENDAR_DATE ( 2013, 9, 8 ) ;
#20 = VECTOR ( 'NONE', #155, 1000.000000000000000 ) ;
#21 = VECTOR ( 'NONE', #79, 1000.000000000000000 ) ;
#22 = COORDINATED_UNIVERSAL_TIME_OFFSET ( 9, 0, .AHEAD. ) ;
#23 = FACE_OUTER_BOUND ( 'NONE', #138, .T. ) ;
#24 = VECTOR ( 'NONE', #148, 1000.000000000000000 ) ;
#25 = CLOSED_SHELL ( 'NONE', ( #220, #226, #222, #215, #217, #216 ) ) ;
#26 = VECTOR ( 'NONE', #114, 1000.000000000000000 ) ;
#27 = FACE_OUTER_BOUND ( 'NONE', #139, .T. ) ;
#28 = AXIS2_PLACEMENT_3D ( 'NONE', #58, #57, #56 ) ;
#29 = CC_DESIGN_APPROVAL ( #213, ( #38 ) ) ;
#30 = FACE_OUTER_BOUND ( 'NONE', #140, .T. ) ;
#31 = AXIS2_PLACEMENT_3D ( 'NONE', #93, #89, #96 ) ;
#32 = COORDINATED_UNIVERSAL_TIME_OFFSET ( 9, 0, .AHEAD. ) ;
#33 = AXIS2_PLACEMENT_3D ( 'NONE', #92, #95, #88 ) ;
#34 = VECTOR ( 'NONE', #53, 1000.000000000000000 ) ;
#35 = FACE_OUTER_BOUND ( 'NONE', #136, .T. ) ;
#36 = APPROVAL_PERSON_ORGANIZATION ( #194, #199, #196 ) ;
#37 = VECTOR ( 'NONE', #158, 1000.000000000000000 ) ;
#38 = PRODUCT_DEFINITION_FORMATION_WITH_SPECIFIED_SOURCE ( 'ANY', '', #234, .NOT_KNOWN. ) ;
#39 = VECTOR ( 'NONE', #68, 1000.000000000000000 ) ;
#40 = SECURITY_CLASSIFICATION ( '', '', #189 ) ;
#41 = AXIS2_PLACEMENT_3D ( 'NONE', #70, #73, #78 ) ;
#42 = CC_DESIGN_SECURITY_CLASSIFICATION ( #40, ( #38 ) ) ;
#43 = APPROVAL_PERSON_ORGANIZATION ( #180, #213, #182 ) ;
#44 = VECTOR ( 'NONE', #62, 1000.000000000000000 ) ;
#45 = COORDINATED_UNIVERSAL_TIME_OFFSET ( 9, 0, .AHEAD. ) ;
#46 = AXIS2_PLACEMENT_3D ( 'NONE', #66, #74, #72 ) ;
#47 = VECTOR ( 'NONE', #121, 1000.000000000000000 ) ;
#48 = VECTOR ( 'NONE', #59, 1000.000000000000000 ) ;
#49 = FACE_OUTER_BOUND ( 'NONE', #137, .T. ) ;
#50 = AXIS2_PLACEMENT_3D ( 'NONE', #87, #86, #85 ) ;
#51 = CC_DESIGN_APPROVAL ( #203, ( #232 ) ) ;
#52 =( GEOMETRIC_REPRESENTATION_CONTEXT ( 3 ) GLOBAL_UNCERTAINTY_ASSIGNED_CONTEXT ( ( #236 ) ) GLOBAL_UNIT_ASSIGNED_CONTEXT ( ( #159, #160, #161 ) ) REPRESENTATION_CONTEXT ( 'NONE', 'WORKASPACE' ) );
#53 = DIRECTION ( 'NONE',  ( 1.000000000000000000, 6.505213034913026600E-017, 0.0000000000000000000 ) ) ;
#54 = CARTESIAN_POINT ( 'NONE',  ( -5.000000000000000000, -1.500000000000000700, 500.0000000000000000 ) ) ;
#55 = LINE ( 'NONE', #54, #34 ) ;
#56 = DIRECTION ( 'NONE',  ( -1.000000000000000000, -6.505213034913026600E-017, 0.0000000000000000000 ) ) ;
#57 = DIRECTION ( 'NONE',  ( -6.505213034913026600E-017, 1.000000000000000000, 0.0000000000000000000 ) ) ;
#58 = CARTESIAN_POINT ( 'NONE',  ( -5.000000000000000000, -1.500000000000000700, 500.0000000000000000 ) ) ;
#59 = DIRECTION ( 'NONE',  ( -0.0000000000000000000, 1.000000000000000000, -0.0000000000000000000 ) ) ;
#60 = CARTESIAN_POINT ( 'NONE',  ( 5.000000000000000000, 1.500000000000000000, 500.0000000000000000 ) ) ;
#61 = LINE ( 'NONE', #60, #48 ) ;
#62 = DIRECTION ( 'NONE',  ( -1.000000000000000000, 6.505213034913026600E-017, -0.0000000000000000000 ) ) ;
#63 = LINE ( 'NONE', #67, #44 ) ;
#64 = LINE ( 'NONE', #76, #39 ) ;
#65 = PLANE ( 'NONE',  #41 ) ;
#66 = CARTESIAN_POINT ( 'NONE',  ( 5.000000000000000000, 1.500000000000000000, 500.0000000000000000 ) ) ;
#67 = CARTESIAN_POINT ( 'NONE',  ( -5.000000000000000000, 1.500000000000000700, 500.0000000000000000 ) ) ;
#68 = DIRECTION ( 'NONE',  ( 1.000000000000000000, 6.505213034913026600E-017, 0.0000000000000000000 ) ) ;
#69 = LINE ( 'NONE', #75, #21 ) ;
#70 = CARTESIAN_POINT ( 'NONE',  ( -5.000000000000000000, 1.500000000000000700, 500.0000000000000000 ) ) ;
#71 = PLANE ( 'NONE',  #46 ) ;
#72 = DIRECTION ( 'NONE',  ( 0.0000000000000000000, 0.0000000000000000000, 1.000000000000000000 ) ) ;
#73 = DIRECTION ( 'NONE',  ( 1.000000000000000000, 0.0000000000000000000, -0.0000000000000000000 ) ) ;
#74 = DIRECTION ( 'NONE',  ( -1.000000000000000000, 0.0000000000000000000, 0.0000000000000000000 ) ) ;
#75 = CARTESIAN_POINT ( 'NONE',  ( -5.000000000000000000, 1.500000000000000700, -500.0000000000000000 ) ) ;
#76 = CARTESIAN_POINT ( 'NONE',  ( -5.000000000000000000, -1.500000000000000700, -500.0000000000000000 ) ) ;
#77 = DIRECTION ( 'NONE',  ( -0.0000000000000000000, -0.0000000000000000000, -1.000000000000000000 ) ) ;
#78 = DIRECTION ( 'NONE',  ( -0.0000000000000000000, 0.0000000000000000000, -1.000000000000000000 ) ) ;
#79 = DIRECTION ( 'NONE',  ( 0.0000000000000000000, -1.000000000000000000, 0.0000000000000000000 ) ) ;
#80 = PLANE ( 'NONE',  #28 ) ;
#81 = CARTESIAN_POINT ( 'NONE',  ( 5.000000000000000000, 1.500000000000000000, 500.0000000000000000 ) ) ;
#82 = LINE ( 'NONE', #81, #7 ) ;
#83 = CARTESIAN_POINT ( 'NONE',  ( -5.000000000000000000, 1.500000000000000700, 500.0000000000000000 ) ) ;
#84 = PLANE ( 'NONE',  #31 ) ;
#85 = DIRECTION ( 'NONE',  ( 1.000000000000000000, 0.0000000000000000000, 0.0000000000000000000 ) ) ;
#86 = DIRECTION ( 'NONE',  ( -0.0000000000000000000, 0.0000000000000000000, 1.000000000000000000 ) ) ;
#87 = CARTESIAN_POINT ( 'NONE',  ( 0.0000000000000000000, 0.0000000000000000000, 500.0000000000000000 ) ) ;
#88 = DIRECTION ( 'NONE',  ( 1.000000000000000000, -6.505213034913026600E-017, 0.0000000000000000000 ) ) ;
#89 = DIRECTION ( 'NONE',  ( -0.0000000000000000000, 0.0000000000000000000, 1.000000000000000000 ) ) ;
#90 = EDGE_LOOP ( 'NONE', ( #117, #116, #115, #118 ) ) ;
#91 = CARTESIAN_POINT ( 'NONE',  ( 5.000000000000000000, 1.500000000000000000, -500.0000000000000000 ) ) ;
#92 = CARTESIAN_POINT ( 'NONE',  ( -5.000000000000000000, 1.500000000000000700, 500.0000000000000000 ) ) ;
#93 = CARTESIAN_POINT ( 'NONE',  ( 0.0000000000000000000, 0.0000000000000000000, -500.0000000000000000 ) ) ;
#94 = DIRECTION ( 'NONE',  ( -0.0000000000000000000, 1.000000000000000000, -0.0000000000000000000 ) ) ;
#95 = DIRECTION ( 'NONE',  ( -6.505213034913026600E-017, -1.000000000000000000, 0.0000000000000000000 ) ) ;
#96 = DIRECTION ( 'NONE',  ( 1.000000000000000000, 0.0000000000000000000, 0.0000000000000000000 ) ) ;
#97 = PLANE ( 'NONE',  #50 ) ;
#98 = CARTESIAN_POINT ( 'NONE',  ( 5.000000000000000000, -1.500000000000000000, 500.0000000000000000 ) ) ;
#99 = VERTEX_POINT ( 'NONE', #146 ) ;
#100 = VERTEX_POINT ( 'NONE', #91 ) ;
#101 = VERTEX_POINT ( 'NONE', #147 ) ;
#102 = VERTEX_POINT ( 'NONE', #83 ) ;
#103 = VERTEX_POINT ( 'NONE', #98 ) ;
#104 = VERTEX_POINT ( 'NONE', #149 ) ;
#105 = VERTEX_POINT ( 'NONE', #150 ) ;
#106 = VERTEX_POINT ( 'NONE', #151 ) ;
#107 = ORIENTED_EDGE ( 'NONE', *, *, #229, .F. ) ;
#108 = ORIENTED_EDGE ( 'NONE', *, *, #227, .F. ) ;
#109 = ORIENTED_EDGE ( 'NONE', *, *, #230, .T. ) ;
#110 = LINE ( 'NONE', #111, #47 ) ;
#111 = CARTESIAN_POINT ( 'NONE',  ( -5.000000000000000000, -1.500000000000000700, 500.0000000000000000 ) ) ;
#112 = LINE ( 'NONE', #142, #15 ) ;
#113 = ORIENTED_EDGE ( 'NONE', *, *, #207, .F. ) ;
#114 = DIRECTION ( 'NONE',  ( 0.0000000000000000000, -1.000000000000000000, 0.0000000000000000000 ) ) ;
#115 = ORIENTED_EDGE ( 'NONE', *, *, #210, .F. ) ;
#116 = ORIENTED_EDGE ( 'NONE', *, *, #202, .F. ) ;
#117 = ORIENTED_EDGE ( 'NONE', *, *, #223, .F. ) ;
#118 = ORIENTED_EDGE ( 'NONE', *, *, #219, .F. ) ;
#119 = ORIENTED_EDGE ( 'NONE', *, *, #207, .T. ) ;
#120 = ORIENTED_EDGE ( 'NONE', *, *, #228, .T. ) ;
#121 = DIRECTION ( 'NONE',  ( -0.0000000000000000000, -0.0000000000000000000, -1.000000000000000000 ) ) ;
#122 = ORIENTED_EDGE ( 'NONE', *, *, #225, .T. ) ;
#123 = ORIENTED_EDGE ( 'NONE', *, *, #227, .T. ) ;
#124 = ORIENTED_EDGE ( 'NONE', *, *, #218, .T. ) ;
#125 = ORIENTED_EDGE ( 'NONE', *, *, #224, .T. ) ;
#126 = ORIENTED_EDGE ( 'NONE', *, *, #230, .F. ) ;
#127 = ORIENTED_EDGE ( 'NONE', *, *, #224, .F. ) ;
#128 = ORIENTED_EDGE ( 'NONE', *, *, #202, .T. ) ;
#129 = ORIENTED_EDGE ( 'NONE', *, *, #225, .F. ) ;
#130 = ORIENTED_EDGE ( 'NONE', *, *, #218, .F. ) ;
#131 = ORIENTED_EDGE ( 'NONE', *, *, #229, .T. ) ;
#132 = ORIENTED_EDGE ( 'NONE', *, *, #219, .T. ) ;
#133 = ORIENTED_EDGE ( 'NONE', *, *, #210, .T. ) ;
#134 = ORIENTED_EDGE ( 'NONE', *, *, #223, .T. ) ;
#135 = ORIENTED_EDGE ( 'NONE', *, *, #228, .F. ) ;
#136 = EDGE_LOOP ( 'NONE', ( #132, #107, #108, #120 ) ) ;
#137 = EDGE_LOOP ( 'NONE', ( #133, #130, #129, #131 ) ) ;
#138 = EDGE_LOOP ( 'NONE', ( #134, #135, #113, #109 ) ) ;
#139 = EDGE_LOOP ( 'NONE', ( #128, #126, #127, #124 ) ) ;
#140 = EDGE_LOOP ( 'NONE', ( #119, #123, #122, #125 ) ) ;
#141 = CARTESIAN_POINT ( 'NONE',  ( -5.000000000000000000, 1.500000000000000700, -500.0000000000000000 ) ) ;
#142 = CARTESIAN_POINT ( 'NONE',  ( 5.000000000000000000, 1.500000000000000000, -500.0000000000000000 ) ) ;
#143 = CARTESIAN_POINT ( 'NONE',  ( -5.000000000000000000, 1.500000000000000700, 500.0000000000000000 ) ) ;
#144 = LINE ( 'NONE', #143, #26 ) ;
#145 = PLANE ( 'NONE',  #33 ) ;
#146 = CARTESIAN_POINT ( 'NONE',  ( 5.000000000000000000, 1.500000000000000000, 500.0000000000000000 ) ) ;
#147 = CARTESIAN_POINT ( 'NONE',  ( -5.000000000000000000, -1.500000000000000700, -500.0000000000000000 ) ) ;
#148 = DIRECTION ( 'NONE',  ( -1.000000000000000000, 6.505213034913026600E-017, -0.0000000000000000000 ) ) ;
#149 = CARTESIAN_POINT ( 'NONE',  ( -5.000000000000000000, -1.500000000000000700, 500.0000000000000000 ) ) ;
#150 = CARTESIAN_POINT ( 'NONE',  ( 5.000000000000000000, -1.500000000000000000, -500.0000000000000000 ) ) ;
#151 = CARTESIAN_POINT ( 'NONE',  ( -5.000000000000000000, 1.500000000000000700, -500.0000000000000000 ) ) ;
#152 = LINE ( 'NONE', #141, #24 ) ;
#153 = LINE ( 'NONE', #154, #20 ) ;
#154 = CARTESIAN_POINT ( 'NONE',  ( 5.000000000000000000, -1.500000000000000000, 500.0000000000000000 ) ) ;
#155 = DIRECTION ( 'NONE',  ( -0.0000000000000000000, -0.0000000000000000000, -1.000000000000000000 ) ) ;
#156 = LINE ( 'NONE', #157, #37 ) ;
#157 = CARTESIAN_POINT ( 'NONE',  ( -5.000000000000000000, 1.500000000000000700, 500.0000000000000000 ) ) ;
#158 = DIRECTION ( 'NONE',  ( -0.0000000000000000000, -0.0000000000000000000, -1.000000000000000000 ) ) ;
#159 =( LENGTH_UNIT ( ) NAMED_UNIT ( * ) SI_UNIT ( .MILLI., .METRE. ) );
#160 =( NAMED_UNIT ( * ) PLANE_ANGLE_UNIT ( ) SI_UNIT ( $, .RADIAN. ) );
#161 =( NAMED_UNIT ( * ) SI_UNIT ( $, .STERADIAN. ) SOLID_ANGLE_UNIT ( ) );
#162 = APPLICATION_PROTOCOL_DEFINITION ( 'international standard', 'config_control_design', 1994, #5 ) ;
#163 = CARTESIAN_POINT ( 'NONE',  ( 0.0000000000000000000, 0.0000000000000000000, 0.0000000000000000000 ) ) ;
#164 = DIRECTION ( 'NONE',  ( 0.0000000000000000000, 0.0000000000000000000, 1.000000000000000000 ) ) ;
#165 = DIRECTION ( 'NONE',  ( 1.000000000000000000, 0.0000000000000000000, 0.0000000000000000000 ) ) ;
#166 = SHAPE_DEFINITION_REPRESENTATION ( #1, #235 ) ;
#167 = MECHANICAL_CONTEXT ( 'NONE', #5, 'mechanical' ) ;
#168 = PERSON_AND_ORGANIZATION ( #237, #16 ) ;
#169 = PERSON_AND_ORGANIZATION_ROLE ( 'design_owner' ) ;
#170 = APPLICATION_PROTOCOL_DEFINITION ( 'international standard', 'config_control_design', 1994, #4 ) ;
#171 = PERSON_AND_ORGANIZATION ( #237, #16 ) ;
#172 = APPROVAL_STATUS ( 'not_yet_approved' ) ;
#173 = APPROVAL_ROLE ( '' ) ;
#174 = DATE_AND_TIME ( #18, #211 ) ;
#175 = APPROVAL_DATE_TIME ( #174, #203 ) ;
#176 = PERSON_AND_ORGANIZATION ( #237, #16 ) ;
#177 = PERSON_AND_ORGANIZATION_ROLE ( 'creator' ) ;
#178 = DATE_AND_TIME ( #9, #209 ) ;
#179 = DATE_TIME_ROLE ( 'creation_date' ) ;
#180 = PERSON_AND_ORGANIZATION ( #237, #16 ) ;
#181 = APPROVAL_STATUS ( 'not_yet_approved' ) ;
#182 = APPROVAL_ROLE ( '' ) ;
#183 = DATE_AND_TIME ( #19, #214 ) ;
#184 = APPROVAL_DATE_TIME ( #183, #213 ) ;
#185 = PERSON_AND_ORGANIZATION ( #237, #16 ) ;
#186 = PERSON_AND_ORGANIZATION_ROLE ( 'creator' ) ;
#187 = PERSON_AND_ORGANIZATION ( #237, #16 ) ;
#188 = PERSON_AND_ORGANIZATION_ROLE ( 'design_supplier' ) ;
#189 = SECURITY_CLASSIFICATION_LEVEL ( 'unclassified' ) ;
#190 = PERSON_AND_ORGANIZATION ( #237, #16 ) ;
#191 = PERSON_AND_ORGANIZATION_ROLE ( 'classification_officer' ) ;
#192 = DATE_AND_TIME ( #6, #201 ) ;
#193 = DATE_TIME_ROLE ( 'classification_date' ) ;
#194 = PERSON_AND_ORGANIZATION ( #237, #16 ) ;
#195 = APPROVAL_STATUS ( 'not_yet_approved' ) ;
#196 = APPROVAL_ROLE ( '' ) ;
#197 = DATE_AND_TIME ( #14, #221 ) ;
#198 = APPROVAL_DATE_TIME ( #197, #199 ) ;
#199 = APPROVAL ( #195, 'UNSPECIFIED' ) ;
#200 = CC_DESIGN_DATE_AND_TIME_ASSIGNMENT ( #192, #193, ( #40 ) ) ;
#201 = LOCAL_TIME ( 15, 30, 8.000000000000000000, #12 ) ;
#202 = EDGE_CURVE ( 'NONE', #100, #106, #152, .T. ) ;
#203 = APPROVAL ( #172, 'UNSPECIFIED' ) ;
#204 = CC_DESIGN_PERSON_AND_ORGANIZATION_ASSIGNMENT ( #190, #191, ( #40 ) ) ;
#205 = CC_DESIGN_PERSON_AND_ORGANIZATION_ASSIGNMENT ( #187, #188, ( #38 ) ) ;
#206 = CC_DESIGN_PERSON_AND_ORGANIZATION_ASSIGNMENT ( #185, #186, ( #38 ) ) ;
#207 = EDGE_CURVE ( 'NONE', #102, #104, #144, .T. ) ;
#208 = CC_DESIGN_PERSON_AND_ORGANIZATION_ASSIGNMENT ( #176, #177, ( #232 ) ) ;
#209 = LOCAL_TIME ( 15, 30, 8.000000000000000000, #32 ) ;
#210 = EDGE_CURVE ( 'NONE', #105, #100, #112, .T. ) ;
#211 = LOCAL_TIME ( 15, 30, 8.000000000000000000, #22 ) ;
#212 = CC_DESIGN_DATE_AND_TIME_ASSIGNMENT ( #178, #179, ( #232 ) ) ;
#213 = APPROVAL ( #181, 'UNSPECIFIED' ) ;
#214 = LOCAL_TIME ( 15, 30, 8.000000000000000000, #11 ) ;
#215 = ADVANCED_FACE ( 'NONE', ( #27 ), #145, .F. ) ;
#216 = ADVANCED_FACE ( 'NONE', ( #8 ), #84, .F. ) ;
#217 = ADVANCED_FACE ( 'NONE', ( #30 ), #97, .T. ) ;
#218 = EDGE_CURVE ( 'NONE', #99, #100, #82, .T. ) ;
#219 = EDGE_CURVE ( 'NONE', #101, #105, #64, .T. ) ;
#220 = ADVANCED_FACE ( 'NONE', ( #23 ), #65, .F. ) ;
#221 = LOCAL_TIME ( 15, 30, 8.000000000000000000, #45 ) ;
#222 = ADVANCED_FACE ( 'NONE', ( #49 ), #71, .F. ) ;
#223 = EDGE_CURVE ( 'NONE', #106, #101, #69, .T. ) ;
#224 = EDGE_CURVE ( 'NONE', #99, #102, #63, .T. ) ;
#225 = EDGE_CURVE ( 'NONE', #103, #99, #61, .T. ) ;
#226 = ADVANCED_FACE ( 'NONE', ( #35 ), #80, .F. ) ;
#227 = EDGE_CURVE ( 'NONE', #104, #103, #55, .T. ) ;
#228 = EDGE_CURVE ( 'NONE', #104, #101, #110, .T. ) ;
#229 = EDGE_CURVE ( 'NONE', #103, #105, #153, .T. ) ;
#230 = EDGE_CURVE ( 'NONE', #102, #106, #156, .T. ) ;
#231 = CC_DESIGN_PERSON_AND_ORGANIZATION_ASSIGNMENT ( #168, #169, ( #234 ) ) ;
#232 = PRODUCT_DEFINITION ( 'UNKNOWN', '', #38, #2 ) ;
#233 = PRODUCT_RELATED_PRODUCT_CATEGORY ( 'detail', '', ( #234 ) ) ;
#234 = PRODUCT ( 'sone3D', 'sone3D', '', ( #167 ) ) ;
#235 = ADVANCED_BREP_SHAPE_REPRESENTATION ( 'sone3D', ( #3, #17 ), #52 ) ;
#236 = UNCERTAINTY_MEASURE_WITH_UNIT (LENGTH_MEASURE( 1.000000000000000100E-005 ), #159, 'distance_accuracy_value', 'NONE');
#237 = PERSON ( 'UNSPECIFIED', 'UNSPECIFIED', 'UNSPECIFIED', ('UNSPECIFIED'), ('UNSPECIFIED'), ('UNSPECIFIED') ) ;
ENDSEC;
END-ISO-10303-21;
