ISO-10303-21;
HEADER;
FILE_DESCRIPTION (( 'STEP AP203' ),
    '1' );
FILE_NAME ('sone3D.STEP',
    '2013-08-09T06:29:43',
    ( '' ),
    ( '' ),
    'SwSTEP 2.0',
    'SolidWorks 2012',
    '' );
FILE_SCHEMA (( 'CONFIG_CONTROL_DESIGN' ));
ENDSEC;

DATA;
#1 = DESIGN_CONTEXT ( 'detailed design', #197, 'design' ) ;
#2 = PRODUCT_DEFINITION_SHAPE ( 'NONE', 'NONE',  #228 ) ;
#3 = MANIFOLD_SOLID_BREP ( 'ÎÞ½ - µoµ1', #43 ) ;
#4 = VECTOR ( 'NONE', #70, 1000.000000000000000 ) ;
#5 = VECTOR ( 'NONE', #59, 1000.000000000000000 ) ;
#6 = SECURITY_CLASSIFICATION ( '', '', #187 ) ;
#7 = CALENDAR_DATE ( 2013, 9, 8 ) ;
#8 = AXIS2_PLACEMENT_3D ( 'NONE', #55, #54, #53 ) ;
#9 = APPROVAL_PERSON_ORGANIZATION ( #192, #206, #194 ) ;
#10 = PRODUCT_DEFINITION_FORMATION_WITH_SPECIFIED_SOURCE ( 'ANY', '', #234, .NOT_KNOWN. ) ;
#11 = FACE_OUTER_BOUND ( 'NONE', #117, .T. ) ;
#12 = VECTOR ( 'NONE', #83, 1000.000000000000000 ) ;
#13 = COORDINATED_UNIVERSAL_TIME_OFFSET ( 9, 0, .AHEAD. ) ;
#14 = VECTOR ( 'NONE', #91, 1000.000000000000000 ) ;
#15 = APPROVAL_PERSON_ORGANIZATION ( #169, #221, #171 ) ;
#16 = FACE_OUTER_BOUND ( 'NONE', #128, .T. ) ;
#17 = AXIS2_PLACEMENT_3D ( 'NONE', #88, #81, #84 ) ;
#18 = AXIS2_PLACEMENT_3D ( 'NONE', #87, #79, #78 ) ;
#19 = CALENDAR_DATE ( 2013, 9, 8 ) ;
#20 = ORGANIZATION ( 'UNSPECIFIED', 'UNSPECIFIED', '' ) ;
#21 = COORDINATED_UNIVERSAL_TIME_OFFSET ( 9, 0, .AHEAD. ) ;
#22 = CALENDAR_DATE ( 2013, 9, 8 ) ;
#23 = VECTOR ( 'NONE', #156, 1000.000000000000000 ) ;
#24 = AXIS2_PLACEMENT_3D ( 'NONE', #94, #92, #80 ) ;
#25 = APPROVAL_PERSON_ORGANIZATION ( #178, #213, #180 ) ;
#26 = CC_DESIGN_SECURITY_CLASSIFICATION ( #6, ( #10 ) ) ;
#27 = CC_DESIGN_APPROVAL ( #221, ( #228 ) ) ;
#28 = VECTOR ( 'NONE', #65, 1000.000000000000000 ) ;
#29 = CC_DESIGN_APPROVAL ( #206, ( #6 ) ) ;
#30 = COORDINATED_UNIVERSAL_TIME_OFFSET ( 9, 0, .AHEAD. ) ;
#31 = AXIS2_PLACEMENT_3D ( 'NONE', #74, #73, #72 ) ;
#32 = VECTOR ( 'NONE', #153, 1000.000000000000000 ) ;
#33 = VECTOR ( 'NONE', #111, 1000.000000000000000 ) ;
#34 = FACE_OUTER_BOUND ( 'NONE', #127, .T. ) ;
#35 = VECTOR ( 'NONE', #107, 1000.000000000000000 ) ;
#36 = CC_DESIGN_APPROVAL ( #213, ( #10 ) ) ;
#37 = VECTOR ( 'NONE', #145, 1000.000000000000000 ) ;
#38 = COORDINATED_UNIVERSAL_TIME_OFFSET ( 9, 0, .AHEAD. ) ;
#39 = COORDINATED_UNIVERSAL_TIME_OFFSET ( 9, 0, .AHEAD. ) ;
#40 = VECTOR ( 'NONE', #56, 1000.000000000000000 ) ;
#41 = FACE_OUTER_BOUND ( 'NONE', #130, .T. ) ;
#42 = FACE_OUTER_BOUND ( 'NONE', #126, .T. ) ;
#43 = CLOSED_SHELL ( 'NONE', ( #217, #214, #226, #220, #215, #216 ) ) ;
#44 = FACE_OUTER_BOUND ( 'NONE', #129, .T. ) ;
#45 = CALENDAR_DATE ( 2013, 9, 8 ) ;
#46 = AXIS2_PLACEMENT_3D ( 'NONE', #85, #68, #64 ) ;
#47 = CALENDAR_DATE ( 2013, 9, 8 ) ;
#48 = VECTOR ( 'NONE', #150, 1000.000000000000000 ) ;
#49 = AXIS2_PLACEMENT_3D ( 'NONE', #161, #162, #163 ) ;
#50 =( GEOMETRIC_REPRESENTATION_CONTEXT ( 3 ) GLOBAL_UNCERTAINTY_ASSIGNED_CONTEXT ( ( #237 ) ) GLOBAL_UNIT_ASSIGNED_CONTEXT ( ( #157, #158, #159 ) ) REPRESENTATION_CONTEXT ( 'NONE', 'WORKASPACE' ) );
#51 = CARTESIAN_POINT ( 'NONE',  ( -10.00000000000000000, -1.000000000000001100, -500.0000000000000000 ) ) ;
#52 = LINE ( 'NONE', #51, #35 ) ;
#53 = DIRECTION ( 'NONE',  ( 0.0000000000000000000, 0.0000000000000000000, 1.000000000000000000 ) ) ;
#54 = DIRECTION ( 'NONE',  ( -1.000000000000000000, 0.0000000000000000000, 0.0000000000000000000 ) ) ;
#55 = CARTESIAN_POINT ( 'NONE',  ( 10.00000000000000000, 1.000000000000000000, 500.0000000000000000 ) ) ;
#56 = DIRECTION ( 'NONE',  ( -0.0000000000000000000, -0.0000000000000000000, -1.000000000000000000 ) ) ;
#57 = CARTESIAN_POINT ( 'NONE',  ( -10.00000000000000000, 1.000000000000001100, 500.0000000000000000 ) ) ;
#58 = LINE ( 'NONE', #57, #40 ) ;
#59 = DIRECTION ( 'NONE',  ( -0.0000000000000000000, 1.000000000000000000, -0.0000000000000000000 ) ) ;
#60 = LINE ( 'NONE', #82, #5 ) ;
#61 = LINE ( 'NONE', #62, #12 ) ;
#62 = CARTESIAN_POINT ( 'NONE',  ( -10.00000000000000000, 1.000000000000001100, -500.0000000000000000 ) ) ;
#63 = CARTESIAN_POINT ( 'NONE',  ( -10.00000000000000000, 1.000000000000001100, 500.0000000000000000 ) ) ;
#64 = DIRECTION ( 'NONE',  ( 1.000000000000000000, -5.421010862427522200E-017, 0.0000000000000000000 ) ) ;
#65 = DIRECTION ( 'NONE',  ( -1.000000000000000000, 5.421010862427522200E-017, -0.0000000000000000000 ) ) ;
#66 = LINE ( 'NONE', #63, #28 ) ;
#67 = PLANE ( 'NONE',  #46 ) ;
#68 = DIRECTION ( 'NONE',  ( -5.421010862427522200E-017, -1.000000000000000000, 0.0000000000000000000 ) ) ;
#69 = LINE ( 'NONE', #71, #4 ) ;
#70 = DIRECTION ( 'NONE',  ( 1.000000000000000000, 5.421010862427522200E-017, 0.0000000000000000000 ) ) ;
#71 = CARTESIAN_POINT ( 'NONE',  ( -10.00000000000000000, -1.000000000000001100, 500.0000000000000000 ) ) ;
#72 = DIRECTION ( 'NONE',  ( -0.0000000000000000000, 0.0000000000000000000, -1.000000000000000000 ) ) ;
#73 = DIRECTION ( 'NONE',  ( 1.000000000000000000, 0.0000000000000000000, -0.0000000000000000000 ) ) ;
#74 = CARTESIAN_POINT ( 'NONE',  ( -10.00000000000000000, 1.000000000000001100, 500.0000000000000000 ) ) ;
#75 = CARTESIAN_POINT ( 'NONE',  ( 10.00000000000000000, 1.000000000000000000, -500.0000000000000000 ) ) ;
#76 = PLANE ( 'NONE',  #17 ) ;
#77 = PLANE ( 'NONE',  #31 ) ;
#78 = DIRECTION ( 'NONE',  ( 1.000000000000000000, 0.0000000000000000000, 0.0000000000000000000 ) ) ;
#79 = DIRECTION ( 'NONE',  ( -0.0000000000000000000, 0.0000000000000000000, 1.000000000000000000 ) ) ;
#80 = DIRECTION ( 'NONE',  ( -1.000000000000000000, -5.421010862427522200E-017, 0.0000000000000000000 ) ) ;
#81 = DIRECTION ( 'NONE',  ( -0.0000000000000000000, 0.0000000000000000000, 1.000000000000000000 ) ) ;
#82 = CARTESIAN_POINT ( 'NONE',  ( 10.00000000000000000, 1.000000000000000000, 500.0000000000000000 ) ) ;
#83 = DIRECTION ( 'NONE',  ( -1.000000000000000000, 5.421010862427522200E-017, -0.0000000000000000000 ) ) ;
#84 = DIRECTION ( 'NONE',  ( 1.000000000000000000, 0.0000000000000000000, 0.0000000000000000000 ) ) ;
#85 = CARTESIAN_POINT ( 'NONE',  ( -10.00000000000000000, 1.000000000000001100, 500.0000000000000000 ) ) ;
#86 = PLANE ( 'NONE',  #8 ) ;
#87 = CARTESIAN_POINT ( 'NONE',  ( 0.0000000000000000000, 0.0000000000000000000, -500.0000000000000000 ) ) ;
#88 = CARTESIAN_POINT ( 'NONE',  ( 0.0000000000000000000, 0.0000000000000000000, 500.0000000000000000 ) ) ;
#89 = CARTESIAN_POINT ( 'NONE',  ( -10.00000000000000000, -1.000000000000001100, -500.0000000000000000 ) ) ;
#90 = CARTESIAN_POINT ( 'NONE',  ( -10.00000000000000000, -1.000000000000001100, 500.0000000000000000 ) ) ;
#91 = DIRECTION ( 'NONE',  ( -0.0000000000000000000, -0.0000000000000000000, -1.000000000000000000 ) ) ;
#92 = DIRECTION ( 'NONE',  ( -5.421010862427522200E-017, 1.000000000000000000, 0.0000000000000000000 ) ) ;
#93 = PLANE ( 'NONE',  #18 ) ;
#94 = CARTESIAN_POINT ( 'NONE',  ( -10.00000000000000000, -1.000000000000001100, 500.0000000000000000 ) ) ;
#95 = VERTEX_POINT ( 'NONE', #143 ) ;
#96 = ORIENTED_EDGE ( 'NONE', *, *, #218, .F. ) ;
#97 = ORIENTED_EDGE ( 'NONE', *, *, #200, .F. ) ;
#98 = ORIENTED_EDGE ( 'NONE', *, *, #223, .F. ) ;
#99 = ORIENTED_EDGE ( 'NONE', *, *, #231, .F. ) ;
#100 = ORIENTED_EDGE ( 'NONE', *, *, #227, .F. ) ;
#101 = ORIENTED_EDGE ( 'NONE', *, *, #224, .T. ) ;
#102 = ORIENTED_EDGE ( 'NONE', *, *, #218, .T. ) ;
#103 = ORIENTED_EDGE ( 'NONE', *, *, #230, .T. ) ;
#104 = ORIENTED_EDGE ( 'NONE', *, *, #203, .T. ) ;
#105 = ORIENTED_EDGE ( 'NONE', *, *, #222, .T. ) ;
#106 = ORIENTED_EDGE ( 'NONE', *, *, #225, .F. ) ;
#107 = DIRECTION ( 'NONE',  ( 1.000000000000000000, 5.421010862427522200E-017, 0.0000000000000000000 ) ) ;
#108 = LINE ( 'NONE', #118, #48 ) ;
#109 = CARTESIAN_POINT ( 'NONE',  ( 10.00000000000000000, 1.000000000000000000, 500.0000000000000000 ) ) ;
#110 = ORIENTED_EDGE ( 'NONE', *, *, #222, .F. ) ;
#111 = DIRECTION ( 'NONE',  ( -0.0000000000000000000, -0.0000000000000000000, -1.000000000000000000 ) ) ;
#112 = ORIENTED_EDGE ( 'NONE', *, *, #223, .T. ) ;
#113 = ORIENTED_EDGE ( 'NONE', *, *, #201, .F. ) ;
#114 = ORIENTED_EDGE ( 'NONE', *, *, #224, .F. ) ;
#115 = ORIENTED_EDGE ( 'NONE', *, *, #203, .F. ) ;
#116 = ORIENTED_EDGE ( 'NONE', *, *, #230, .F. ) ;
#117 = EDGE_LOOP ( 'NONE', ( #99, #98, #97, #100 ) ) ;
#118 = CARTESIAN_POINT ( 'NONE',  ( -10.00000000000000000, -1.000000000000001100, 500.0000000000000000 ) ) ;
#119 = ORIENTED_EDGE ( 'NONE', *, *, #201, .T. ) ;
#120 = ORIENTED_EDGE ( 'NONE', *, *, #227, .T. ) ;
#121 = ORIENTED_EDGE ( 'NONE', *, *, #200, .T. ) ;
#122 = ORIENTED_EDGE ( 'NONE', *, *, #229, .T. ) ;
#123 = ORIENTED_EDGE ( 'NONE', *, *, #231, .T. ) ;
#124 = ORIENTED_EDGE ( 'NONE', *, *, #229, .F. ) ;
#125 = ORIENTED_EDGE ( 'NONE', *, *, #225, .T. ) ;
#126 = EDGE_LOOP ( 'NONE', ( #120, #113, #96, #122 ) ) ;
#127 = EDGE_LOOP ( 'NONE', ( #121, #115, #114, #119 ) ) ;
#128 = EDGE_LOOP ( 'NONE', ( #123, #124, #116, #125 ) ) ;
#129 = EDGE_LOOP ( 'NONE', ( #112, #106, #110, #104 ) ) ;
#130 = EDGE_LOOP ( 'NONE', ( #103, #102, #101, #105 ) ) ;
#131 = VERTEX_POINT ( 'NONE', #89 ) ;
#132 = VERTEX_POINT ( 'NONE', #144 ) ;
#133 = VERTEX_POINT ( 'NONE', #75 ) ;
#134 = VERTEX_POINT ( 'NONE', #90 ) ;
#135 = VERTEX_POINT ( 'NONE', #146 ) ;
#136 = VERTEX_POINT ( 'NONE', #147 ) ;
#137 = VERTEX_POINT ( 'NONE', #148 ) ;
#138 = CARTESIAN_POINT ( 'NONE',  ( 10.00000000000000000, 1.000000000000000000, -500.0000000000000000 ) ) ;
#139 = LINE ( 'NONE', #109, #14 ) ;
#140 = CARTESIAN_POINT ( 'NONE',  ( 10.00000000000000000, -1.000000000000000000, 500.0000000000000000 ) ) ;
#141 = LINE ( 'NONE', #140, #33 ) ;
#142 = PLANE ( 'NONE',  #24 ) ;
#143 = CARTESIAN_POINT ( 'NONE',  ( -10.00000000000000000, 1.000000000000001100, -500.0000000000000000 ) ) ;
#144 = CARTESIAN_POINT ( 'NONE',  ( 10.00000000000000000, -1.000000000000000000, -500.0000000000000000 ) ) ;
#145 = DIRECTION ( 'NONE',  ( -0.0000000000000000000, 1.000000000000000000, -0.0000000000000000000 ) ) ;
#146 = CARTESIAN_POINT ( 'NONE',  ( -10.00000000000000000, 1.000000000000001100, 500.0000000000000000 ) ) ;
#147 = CARTESIAN_POINT ( 'NONE',  ( 10.00000000000000000, -1.000000000000000000, 500.0000000000000000 ) ) ;
#148 = CARTESIAN_POINT ( 'NONE',  ( 10.00000000000000000, 1.000000000000000000, 500.0000000000000000 ) ) ;
#149 = LINE ( 'NONE', #138, #37 ) ;
#150 = DIRECTION ( 'NONE',  ( -0.0000000000000000000, -0.0000000000000000000, -1.000000000000000000 ) ) ;
#151 = LINE ( 'NONE', #152, #32 ) ;
#152 = CARTESIAN_POINT ( 'NONE',  ( -10.00000000000000000, 1.000000000000001100, 500.0000000000000000 ) ) ;
#153 = DIRECTION ( 'NONE',  ( 0.0000000000000000000, -1.000000000000000000, 0.0000000000000000000 ) ) ;
#154 = LINE ( 'NONE', #155, #23 ) ;
#155 = CARTESIAN_POINT ( 'NONE',  ( -10.00000000000000000, 1.000000000000001100, -500.0000000000000000 ) ) ;
#156 = DIRECTION ( 'NONE',  ( 0.0000000000000000000, -1.000000000000000000, 0.0000000000000000000 ) ) ;
#157 =( LENGTH_UNIT ( ) NAMED_UNIT ( * ) SI_UNIT ( .MILLI., .METRE. ) );
#158 =( NAMED_UNIT ( * ) PLANE_ANGLE_UNIT ( ) SI_UNIT ( $, .RADIAN. ) );
#159 =( NAMED_UNIT ( * ) SI_UNIT ( $, .STERADIAN. ) SOLID_ANGLE_UNIT ( ) );
#160 = APPLICATION_PROTOCOL_DEFINITION ( 'international standard', 'config_control_design', 1994, #198 ) ;
#161 = CARTESIAN_POINT ( 'NONE',  ( 0.0000000000000000000, 0.0000000000000000000, 0.0000000000000000000 ) ) ;
#162 = DIRECTION ( 'NONE',  ( 0.0000000000000000000, 0.0000000000000000000, 1.000000000000000000 ) ) ;
#163 = DIRECTION ( 'NONE',  ( 1.000000000000000000, 0.0000000000000000000, 0.0000000000000000000 ) ) ;
#164 = SHAPE_DEFINITION_REPRESENTATION ( #2, #236 ) ;
#165 = MECHANICAL_CONTEXT ( 'NONE', #198, 'mechanical' ) ;
#166 = PERSON_AND_ORGANIZATION ( #235, #20 ) ;
#167 = PERSON_AND_ORGANIZATION_ROLE ( 'design_owner' ) ;
#168 = APPLICATION_PROTOCOL_DEFINITION ( 'international standard', 'config_control_design', 1994, #197 ) ;
#169 = PERSON_AND_ORGANIZATION ( #235, #20 ) ;
#170 = APPROVAL_STATUS ( 'not_yet_approved' ) ;
#171 = APPROVAL_ROLE ( '' ) ;
#172 = DATE_AND_TIME ( #47, #211 ) ;
#173 = APPROVAL_DATE_TIME ( #172, #221 ) ;
#174 = PERSON_AND_ORGANIZATION ( #235, #20 ) ;
#175 = PERSON_AND_ORGANIZATION_ROLE ( 'creator' ) ;
#176 = DATE_AND_TIME ( #22, #210 ) ;
#177 = DATE_TIME_ROLE ( 'creation_date' ) ;
#178 = PERSON_AND_ORGANIZATION ( #235, #20 ) ;
#179 = APPROVAL_STATUS ( 'not_yet_approved' ) ;
#180 = APPROVAL_ROLE ( '' ) ;
#181 = DATE_AND_TIME ( #19, #208 ) ;
#182 = APPROVAL_DATE_TIME ( #181, #213 ) ;
#183 = PERSON_AND_ORGANIZATION ( #235, #20 ) ;
#184 = PERSON_AND_ORGANIZATION_ROLE ( 'creator' ) ;
#185 = PERSON_AND_ORGANIZATION ( #235, #20 ) ;
#186 = PERSON_AND_ORGANIZATION_ROLE ( 'design_supplier' ) ;
#187 = SECURITY_CLASSIFICATION_LEVEL ( 'unclassified' ) ;
#188 = PERSON_AND_ORGANIZATION ( #235, #20 ) ;
#189 = PERSON_AND_ORGANIZATION_ROLE ( 'classification_officer' ) ;
#190 = DATE_AND_TIME ( #7, #202 ) ;
#191 = DATE_TIME_ROLE ( 'classification_date' ) ;
#192 = PERSON_AND_ORGANIZATION ( #235, #20 ) ;
#193 = APPROVAL_STATUS ( 'not_yet_approved' ) ;
#194 = APPROVAL_ROLE ( '' ) ;
#195 = DATE_AND_TIME ( #45, #232 ) ;
#196 = APPROVAL_DATE_TIME ( #195, #206 ) ;
#197 = APPLICATION_CONTEXT ( 'configuration controlled 3d designs of mechanical parts and assemblies' ) ;
#198 = APPLICATION_CONTEXT ( 'configuration controlled 3d designs of mechanical parts and assemblies' ) ;
#199 = CC_DESIGN_DATE_AND_TIME_ASSIGNMENT ( #190, #191, ( #6 ) ) ;
#200 = EDGE_CURVE ( 'NONE', #132, #133, #149, .T. ) ;
#201 = EDGE_CURVE ( 'NONE', #136, #132, #141, .T. ) ;
#202 = LOCAL_TIME ( 15, 29, 43.00000000000000000, #21 ) ;
#203 = EDGE_CURVE ( 'NONE', #137, #133, #139, .T. ) ;
#204 = CC_DESIGN_PERSON_AND_ORGANIZATION_ASSIGNMENT ( #188, #189, ( #6 ) ) ;
#205 = CC_DESIGN_PERSON_AND_ORGANIZATION_ASSIGNMENT ( #185, #186, ( #10 ) ) ;
#206 = APPROVAL ( #193, 'UNSPECIFIED' ) ;
#207 = CC_DESIGN_PERSON_AND_ORGANIZATION_ASSIGNMENT ( #183, #184, ( #10 ) ) ;
#208 = LOCAL_TIME ( 15, 29, 43.00000000000000000, #13 ) ;
#209 = CC_DESIGN_PERSON_AND_ORGANIZATION_ASSIGNMENT ( #174, #175, ( #228 ) ) ;
#210 = LOCAL_TIME ( 15, 29, 43.00000000000000000, #38 ) ;
#211 = LOCAL_TIME ( 15, 29, 43.00000000000000000, #39 ) ;
#212 = CC_DESIGN_DATE_AND_TIME_ASSIGNMENT ( #176, #177, ( #228 ) ) ;
#213 = APPROVAL ( #179, 'UNSPECIFIED' ) ;
#214 = ADVANCED_FACE ( 'NONE', ( #42 ), #142, .F. ) ;
#215 = ADVANCED_FACE ( 'NONE', ( #41 ), #76, .T. ) ;
#216 = ADVANCED_FACE ( 'NONE', ( #11 ), #93, .F. ) ;
#217 = ADVANCED_FACE ( 'NONE', ( #16 ), #77, .F. ) ;
#218 = EDGE_CURVE ( 'NONE', #134, #136, #69, .T. ) ;
#219 = CC_DESIGN_PERSON_AND_ORGANIZATION_ASSIGNMENT ( #166, #167, ( #234 ) ) ;
#220 = ADVANCED_FACE ( 'NONE', ( #44 ), #67, .F. ) ;
#221 = APPROVAL ( #170, 'UNSPECIFIED' ) ;
#222 = EDGE_CURVE ( 'NONE', #137, #135, #66, .T. ) ;
#223 = EDGE_CURVE ( 'NONE', #133, #95, #61, .T. ) ;
#224 = EDGE_CURVE ( 'NONE', #136, #137, #60, .T. ) ;
#225 = EDGE_CURVE ( 'NONE', #135, #95, #58, .T. ) ;
#226 = ADVANCED_FACE ( 'NONE', ( #34 ), #86, .F. ) ;
#227 = EDGE_CURVE ( 'NONE', #131, #132, #52, .T. ) ;
#228 = PRODUCT_DEFINITION ( 'UNKNOWN', '', #10, #1 ) ;
#229 = EDGE_CURVE ( 'NONE', #134, #131, #108, .T. ) ;
#230 = EDGE_CURVE ( 'NONE', #135, #134, #151, .T. ) ;
#231 = EDGE_CURVE ( 'NONE', #95, #131, #154, .T. ) ;
#232 = LOCAL_TIME ( 15, 29, 43.00000000000000000, #30 ) ;
#233 = PRODUCT_RELATED_PRODUCT_CATEGORY ( 'detail', '', ( #234 ) ) ;
#234 = PRODUCT ( 'sone3D', 'sone3D', '', ( #165 ) ) ;
#235 = PERSON ( 'UNSPECIFIED', 'UNSPECIFIED', 'UNSPECIFIED', ('UNSPECIFIED'), ('UNSPECIFIED'), ('UNSPECIFIED') ) ;
#236 = ADVANCED_BREP_SHAPE_REPRESENTATION ( 'sone3D', ( #3, #49 ), #50 ) ;
#237 = UNCERTAINTY_MEASURE_WITH_UNIT (LENGTH_MEASURE( 1.000000000000000100E-005 ), #157, 'distance_accuracy_value', 'NONE');
ENDSEC;
END-ISO-10303-21;
