ISO-10303-21;
HEADER;
FILE_DESCRIPTION (( 'STEP AP203' ),
    '1' );
FILE_NAME ('sone3D.STEP',
    '2013-08-09T06:29:15',
    ( '' ),
    ( '' ),
    'SwSTEP 2.0',
    'SolidWorks 2012',
    '' );
FILE_SCHEMA (( 'CONFIG_CONTROL_DESIGN' ));
ENDSEC;

DATA;
#1 = APPLICATION_CONTEXT ( 'configuration controlled 3d designs of mechanical parts and assemblies' ) ;
#2 = APPLICATION_CONTEXT ( 'configuration controlled 3d designs of mechanical parts and assemblies' ) ;
#3 = MANIFOLD_SOLID_BREP ( 'ÎÞ½ - µoµ1', #35 ) ;
#4 = PRODUCT_DEFINITION_SHAPE ( 'NONE', 'NONE',  #202 ) ;
#5 = DESIGN_CONTEXT ( 'detailed design', #1, 'design' ) ;
#6 = AXIS2_PLACEMENT_3D ( 'NONE', #60, #78, #58 ) ;
#7 = SECURITY_CLASSIFICATION ( '', '', #189 ) ;
#8 = FACE_OUTER_BOUND ( 'NONE', #130, .T. ) ;
#9 = VECTOR ( 'NONE', #77, 1000.000000000000000 ) ;
#10 = CC_DESIGN_APPROVAL ( #200, ( #202 ) ) ;
#11 = AXIS2_PLACEMENT_3D ( 'NONE', #148, #149, #150 ) ;
#12 = ORGANIZATION ( 'UNSPECIFIED', 'UNSPECIFIED', '' ) ;
#13 = APPROVAL_PERSON_ORGANIZATION ( #171, #200, #173 ) ;
#14 = VECTOR ( 'NONE', #67, 1000.000000000000000 ) ;
#15 = CALENDAR_DATE ( 2013, 9, 8 ) ;
#16 = FACE_OUTER_BOUND ( 'NONE', #115, .T. ) ;
#17 = APPROVAL_PERSON_ORGANIZATION ( #194, #231, #196 ) ;
#18 = CALENDAR_DATE ( 2013, 9, 8 ) ;
#19 = PRODUCT_DEFINITION_FORMATION_WITH_SPECIFIED_SOURCE ( 'ANY', '', #234, .NOT_KNOWN. ) ;
#20 = VECTOR ( 'NONE', #70, 1000.000000000000000 ) ;
#21 = VECTOR ( 'NONE', #140, 1000.000000000000000 ) ;
#22 = COORDINATED_UNIVERSAL_TIME_OFFSET ( 9, 0, .AHEAD. ) ;
#23 = COORDINATED_UNIVERSAL_TIME_OFFSET ( 9, 0, .AHEAD. ) ;
#24 = VECTOR ( 'NONE', #82, 1000.000000000000000 ) ;
#25 = VECTOR ( 'NONE', #66, 1000.000000000000000 ) ;
#26 = FACE_OUTER_BOUND ( 'NONE', #129, .T. ) ;
#27 = CC_DESIGN_APPROVAL ( #231, ( #7 ) ) ;
#28 = COORDINATED_UNIVERSAL_TIME_OFFSET ( 9, 0, .AHEAD. ) ;
#29 = APPROVAL_PERSON_ORGANIZATION ( #180, #224, #182 ) ;
#30 = CALENDAR_DATE ( 2013, 9, 8 ) ;
#31 = VECTOR ( 'NONE', #147, 1000.000000000000000 ) ;
#32 = CALENDAR_DATE ( 2013, 9, 8 ) ;
#33 = COORDINATED_UNIVERSAL_TIME_OFFSET ( 9, 0, .AHEAD. ) ;
#34 = CC_DESIGN_SECURITY_CLASSIFICATION ( #7, ( #19 ) ) ;
#35 = CLOSED_SHELL ( 'NONE', ( #215, #217, #218, #214, #216, #219 ) ) ;
#36 = CC_DESIGN_APPROVAL ( #224, ( #19 ) ) ;
#37 = COORDINATED_UNIVERSAL_TIME_OFFSET ( 9, 0, .AHEAD. ) ;
#38 = FACE_OUTER_BOUND ( 'NONE', #127, .T. ) ;
#39 = VECTOR ( 'NONE', #109, 1000.000000000000000 ) ;
#40 = AXIS2_PLACEMENT_3D ( 'NONE', #104, #105, #106 ) ;
#41 = VECTOR ( 'NONE', #79, 1000.000000000000000 ) ;
#42 = AXIS2_PLACEMENT_3D ( 'NONE', #156, #157, #158 ) ;
#43 = FACE_OUTER_BOUND ( 'NONE', #128, .T. ) ;
#44 = VECTOR ( 'NONE', #84, 1000.000000000000000 ) ;
#45 = CALENDAR_DATE ( 2013, 9, 8 ) ;
#46 = VECTOR ( 'NONE', #71, 1000.000000000000000 ) ;
#47 = AXIS2_PLACEMENT_3D ( 'NONE', #152, #153, #154 ) ;
#48 = FACE_OUTER_BOUND ( 'NONE', #126, .T. ) ;
#49 = AXIS2_PLACEMENT_3D ( 'NONE', #163, #164, #165 ) ;
#50 = VECTOR ( 'NONE', #81, 1000.000000000000000 ) ;
#51 = AXIS2_PLACEMENT_3D ( 'NONE', #56, #55, #54 ) ;
#52 =( GEOMETRIC_REPRESENTATION_CONTEXT ( 3 ) GLOBAL_UNCERTAINTY_ASSIGNED_CONTEXT ( ( #235 ) ) GLOBAL_UNIT_ASSIGNED_CONTEXT ( ( #159, #160, #161 ) ) REPRESENTATION_CONTEXT ( 'NONE', 'WORKASPACE' ) );
#53 = PLANE ( 'NONE',  #40 ) ;
#54 = DIRECTION ( 'NONE',  ( -0.0000000000000000000, 0.0000000000000000000, -1.000000000000000000 ) ) ;
#55 = DIRECTION ( 'NONE',  ( 1.000000000000000000, 0.0000000000000000000, -0.0000000000000000000 ) ) ;
#56 = CARTESIAN_POINT ( 'NONE',  ( -7.500000000000000000, 1.000000000000000700, 500.0000000000000000 ) ) ;
#57 = LINE ( 'NONE', #85, #25 ) ;
#58 = DIRECTION ( 'NONE',  ( 1.000000000000000000, -4.336808689942017700E-017, 0.0000000000000000000 ) ) ;
#59 = CARTESIAN_POINT ( 'NONE',  ( 7.500000000000000000, 1.000000000000000000, 500.0000000000000000 ) ) ;
#60 = CARTESIAN_POINT ( 'NONE',  ( -7.500000000000000000, 1.000000000000000700, 500.0000000000000000 ) ) ;
#61 = CARTESIAN_POINT ( 'NONE',  ( -7.500000000000000000, 1.000000000000000700, 500.0000000000000000 ) ) ;
#62 = PLANE ( 'NONE',  #51 ) ;
#63 = CARTESIAN_POINT ( 'NONE',  ( 7.500000000000000000, 1.000000000000000000, -500.0000000000000000 ) ) ;
#64 = LINE ( 'NONE', #63, #14 ) ;
#65 = CARTESIAN_POINT ( 'NONE',  ( -7.500000000000000000, 1.000000000000000700, -500.0000000000000000 ) ) ;
#66 = DIRECTION ( 'NONE',  ( -1.000000000000000000, 4.336808689942017700E-017, -0.0000000000000000000 ) ) ;
#67 = DIRECTION ( 'NONE',  ( -0.0000000000000000000, 1.000000000000000000, -0.0000000000000000000 ) ) ;
#68 = LINE ( 'NONE', #74, #9 ) ;
#69 = CARTESIAN_POINT ( 'NONE',  ( -7.500000000000000000, -1.000000000000000700, 500.0000000000000000 ) ) ;
#70 = DIRECTION ( 'NONE',  ( 1.000000000000000000, 4.336808689942017700E-017, 0.0000000000000000000 ) ) ;
#71 = DIRECTION ( 'NONE',  ( 0.0000000000000000000, -1.000000000000000000, 0.0000000000000000000 ) ) ;
#72 = CARTESIAN_POINT ( 'NONE',  ( 7.500000000000000000, -1.000000000000000000, 500.0000000000000000 ) ) ;
#73 = LINE ( 'NONE', #61, #24 ) ;
#74 = CARTESIAN_POINT ( 'NONE',  ( -7.500000000000000000, 1.000000000000000700, 500.0000000000000000 ) ) ;
#75 = LINE ( 'NONE', #72, #41 ) ;
#76 = CARTESIAN_POINT ( 'NONE',  ( -7.500000000000000000, 1.000000000000000700, -500.0000000000000000 ) ) ;
#77 = DIRECTION ( 'NONE',  ( 0.0000000000000000000, -1.000000000000000000, 0.0000000000000000000 ) ) ;
#78 = DIRECTION ( 'NONE',  ( -4.336808689942017700E-017, -1.000000000000000000, 0.0000000000000000000 ) ) ;
#79 = DIRECTION ( 'NONE',  ( -0.0000000000000000000, -0.0000000000000000000, -1.000000000000000000 ) ) ;
#80 = CARTESIAN_POINT ( 'NONE',  ( 7.500000000000000000, 1.000000000000000000, -500.0000000000000000 ) ) ;
#81 = DIRECTION ( 'NONE',  ( -0.0000000000000000000, 1.000000000000000000, -0.0000000000000000000 ) ) ;
#82 = DIRECTION ( 'NONE',  ( -0.0000000000000000000, -0.0000000000000000000, -1.000000000000000000 ) ) ;
#83 = LINE ( 'NONE', #65, #44 ) ;
#84 = DIRECTION ( 'NONE',  ( -1.000000000000000000, 4.336808689942017700E-017, -0.0000000000000000000 ) ) ;
#85 = CARTESIAN_POINT ( 'NONE',  ( -7.500000000000000000, 1.000000000000000700, 500.0000000000000000 ) ) ;
#86 = LINE ( 'NONE', #59, #50 ) ;
#87 = VERTEX_POINT ( 'NONE', #131 ) ;
#88 = VERTEX_POINT ( 'NONE', #132 ) ;
#89 = VERTEX_POINT ( 'NONE', #133 ) ;
#90 = VERTEX_POINT ( 'NONE', #134 ) ;
#91 = VERTEX_POINT ( 'NONE', #135 ) ;
#92 = VERTEX_POINT ( 'NONE', #80 ) ;
#93 = VERTEX_POINT ( 'NONE', #141 ) ;
#94 = VERTEX_POINT ( 'NONE', #76 ) ;
#95 = ORIENTED_EDGE ( 'NONE', *, *, #199, .F. ) ;
#96 = ORIENTED_EDGE ( 'NONE', *, *, #210, .F. ) ;
#97 = ORIENTED_EDGE ( 'NONE', *, *, #212, .F. ) ;
#98 = ORIENTED_EDGE ( 'NONE', *, *, #207, .F. ) ;
#99 = ORIENTED_EDGE ( 'NONE', *, *, #206, .T. ) ;
#100 = ORIENTED_EDGE ( 'NONE', *, *, #208, .F. ) ;
#101 = ORIENTED_EDGE ( 'NONE', *, *, #203, .F. ) ;
#102 = ORIENTED_EDGE ( 'NONE', *, *, #206, .F. ) ;
#103 = ORIENTED_EDGE ( 'NONE', *, *, #205, .F. ) ;
#104 = CARTESIAN_POINT ( 'NONE',  ( 0.0000000000000000000, 0.0000000000000000000, 500.0000000000000000 ) ) ;
#105 = DIRECTION ( 'NONE',  ( -0.0000000000000000000, 0.0000000000000000000, 1.000000000000000000 ) ) ;
#106 = DIRECTION ( 'NONE',  ( 1.000000000000000000, 0.0000000000000000000, 0.0000000000000000000 ) ) ;
#107 = LINE ( 'NONE', #137, #46 ) ;
#108 = ORIENTED_EDGE ( 'NONE', *, *, #211, .T. ) ;
#109 = DIRECTION ( 'NONE',  ( -0.0000000000000000000, -0.0000000000000000000, -1.000000000000000000 ) ) ;
#110 = ORIENTED_EDGE ( 'NONE', *, *, #199, .T. ) ;
#111 = ORIENTED_EDGE ( 'NONE', *, *, #208, .T. ) ;
#112 = ORIENTED_EDGE ( 'NONE', *, *, #204, .T. ) ;
#113 = ORIENTED_EDGE ( 'NONE', *, *, #213, .T. ) ;
#114 = ORIENTED_EDGE ( 'NONE', *, *, #212, .T. ) ;
#115 = EDGE_LOOP ( 'NONE', ( #114, #117, #118, #112 ) ) ;
#116 = PLANE ( 'NONE',  #11 ) ;
#117 = ORIENTED_EDGE ( 'NONE', *, *, #209, .F. ) ;
#118 = ORIENTED_EDGE ( 'NONE', *, *, #213, .F. ) ;
#119 = ORIENTED_EDGE ( 'NONE', *, *, #211, .F. ) ;
#120 = ORIENTED_EDGE ( 'NONE', *, *, #204, .F. ) ;
#121 = ORIENTED_EDGE ( 'NONE', *, *, #207, .T. ) ;
#122 = ORIENTED_EDGE ( 'NONE', *, *, #205, .T. ) ;
#123 = ORIENTED_EDGE ( 'NONE', *, *, #210, .T. ) ;
#124 = ORIENTED_EDGE ( 'NONE', *, *, #203, .T. ) ;
#125 = ORIENTED_EDGE ( 'NONE', *, *, #209, .T. ) ;
#126 = EDGE_LOOP ( 'NONE', ( #122, #98, #95, #124 ) ) ;
#127 = EDGE_LOOP ( 'NONE', ( #123, #120, #119, #121 ) ) ;
#128 = EDGE_LOOP ( 'NONE', ( #99, #101, #100, #125 ) ) ;
#129 = EDGE_LOOP ( 'NONE', ( #111, #110, #108, #113 ) ) ;
#130 = EDGE_LOOP ( 'NONE', ( #102, #97, #96, #103 ) ) ;
#131 = CARTESIAN_POINT ( 'NONE',  ( -7.500000000000000000, -1.000000000000000700, -500.0000000000000000 ) ) ;
#132 = CARTESIAN_POINT ( 'NONE',  ( -7.500000000000000000, -1.000000000000000700, 500.0000000000000000 ) ) ;
#133 = CARTESIAN_POINT ( 'NONE',  ( 7.500000000000000000, -1.000000000000000000, 500.0000000000000000 ) ) ;
#134 = CARTESIAN_POINT ( 'NONE',  ( -7.500000000000000000, 1.000000000000000700, 500.0000000000000000 ) ) ;
#135 = CARTESIAN_POINT ( 'NONE',  ( 7.500000000000000000, -1.000000000000000000, -500.0000000000000000 ) ) ;
#136 = LINE ( 'NONE', #143, #39 ) ;
#137 = CARTESIAN_POINT ( 'NONE',  ( -7.500000000000000000, 1.000000000000000700, -500.0000000000000000 ) ) ;
#138 = LINE ( 'NONE', #139, #21 ) ;
#139 = CARTESIAN_POINT ( 'NONE',  ( -7.500000000000000000, -1.000000000000000700, -500.0000000000000000 ) ) ;
#140 = DIRECTION ( 'NONE',  ( 1.000000000000000000, 4.336808689942017700E-017, 0.0000000000000000000 ) ) ;
#141 = CARTESIAN_POINT ( 'NONE',  ( 7.500000000000000000, 1.000000000000000000, 500.0000000000000000 ) ) ;
#142 = LINE ( 'NONE', #69, #20 ) ;
#143 = CARTESIAN_POINT ( 'NONE',  ( 7.500000000000000000, 1.000000000000000000, 500.0000000000000000 ) ) ;
#144 = PLANE ( 'NONE',  #6 ) ;
#145 = LINE ( 'NONE', #146, #31 ) ;
#146 = CARTESIAN_POINT ( 'NONE',  ( -7.500000000000000000, -1.000000000000000700, 500.0000000000000000 ) ) ;
#147 = DIRECTION ( 'NONE',  ( -0.0000000000000000000, -0.0000000000000000000, -1.000000000000000000 ) ) ;
#148 = CARTESIAN_POINT ( 'NONE',  ( -7.500000000000000000, -1.000000000000000700, 500.0000000000000000 ) ) ;
#149 = DIRECTION ( 'NONE',  ( -4.336808689942017700E-017, 1.000000000000000000, 0.0000000000000000000 ) ) ;
#150 = DIRECTION ( 'NONE',  ( -1.000000000000000000, -4.336808689942017700E-017, 0.0000000000000000000 ) ) ;
#151 = PLANE ( 'NONE',  #47 ) ;
#152 = CARTESIAN_POINT ( 'NONE',  ( 7.500000000000000000, 1.000000000000000000, 500.0000000000000000 ) ) ;
#153 = DIRECTION ( 'NONE',  ( -1.000000000000000000, 0.0000000000000000000, 0.0000000000000000000 ) ) ;
#154 = DIRECTION ( 'NONE',  ( 0.0000000000000000000, 0.0000000000000000000, 1.000000000000000000 ) ) ;
#155 = PLANE ( 'NONE',  #42 ) ;
#156 = CARTESIAN_POINT ( 'NONE',  ( 0.0000000000000000000, 0.0000000000000000000, -500.0000000000000000 ) ) ;
#157 = DIRECTION ( 'NONE',  ( -0.0000000000000000000, 0.0000000000000000000, 1.000000000000000000 ) ) ;
#158 = DIRECTION ( 'NONE',  ( 1.000000000000000000, 0.0000000000000000000, 0.0000000000000000000 ) ) ;
#159 =( LENGTH_UNIT ( ) NAMED_UNIT ( * ) SI_UNIT ( .MILLI., .METRE. ) );
#160 =( NAMED_UNIT ( * ) PLANE_ANGLE_UNIT ( ) SI_UNIT ( $, .RADIAN. ) );
#161 =( NAMED_UNIT ( * ) SI_UNIT ( $, .STERADIAN. ) SOLID_ANGLE_UNIT ( ) );
#162 = APPLICATION_PROTOCOL_DEFINITION ( 'international standard', 'config_control_design', 1994, #2 ) ;
#163 = CARTESIAN_POINT ( 'NONE',  ( 0.0000000000000000000, 0.0000000000000000000, 0.0000000000000000000 ) ) ;
#164 = DIRECTION ( 'NONE',  ( 0.0000000000000000000, 0.0000000000000000000, 1.000000000000000000 ) ) ;
#165 = DIRECTION ( 'NONE',  ( 1.000000000000000000, 0.0000000000000000000, 0.0000000000000000000 ) ) ;
#166 = SHAPE_DEFINITION_REPRESENTATION ( #4, #237 ) ;
#167 = MECHANICAL_CONTEXT ( 'NONE', #2, 'mechanical' ) ;
#168 = PERSON_AND_ORGANIZATION ( #236, #12 ) ;
#169 = PERSON_AND_ORGANIZATION_ROLE ( 'design_owner' ) ;
#170 = APPLICATION_PROTOCOL_DEFINITION ( 'international standard', 'config_control_design', 1994, #1 ) ;
#171 = PERSON_AND_ORGANIZATION ( #236, #12 ) ;
#172 = APPROVAL_STATUS ( 'not_yet_approved' ) ;
#173 = APPROVAL_ROLE ( '' ) ;
#174 = DATE_AND_TIME ( #32, #222 ) ;
#175 = APPROVAL_DATE_TIME ( #174, #200 ) ;
#176 = PERSON_AND_ORGANIZATION ( #236, #12 ) ;
#177 = PERSON_AND_ORGANIZATION_ROLE ( 'creator' ) ;
#178 = DATE_AND_TIME ( #15, #221 ) ;
#179 = DATE_TIME_ROLE ( 'creation_date' ) ;
#180 = PERSON_AND_ORGANIZATION ( #236, #12 ) ;
#181 = APPROVAL_STATUS ( 'not_yet_approved' ) ;
#182 = APPROVAL_ROLE ( '' ) ;
#183 = DATE_AND_TIME ( #30, #225 ) ;
#184 = APPROVAL_DATE_TIME ( #183, #224 ) ;
#185 = PERSON_AND_ORGANIZATION ( #236, #12 ) ;
#186 = PERSON_AND_ORGANIZATION_ROLE ( 'creator' ) ;
#187 = PERSON_AND_ORGANIZATION ( #236, #12 ) ;
#188 = PERSON_AND_ORGANIZATION_ROLE ( 'design_supplier' ) ;
#189 = SECURITY_CLASSIFICATION_LEVEL ( 'unclassified' ) ;
#190 = PERSON_AND_ORGANIZATION ( #236, #12 ) ;
#191 = PERSON_AND_ORGANIZATION_ROLE ( 'classification_officer' ) ;
#192 = DATE_AND_TIME ( #45, #229 ) ;
#193 = DATE_TIME_ROLE ( 'classification_date' ) ;
#194 = PERSON_AND_ORGANIZATION ( #236, #12 ) ;
#195 = APPROVAL_STATUS ( 'not_yet_approved' ) ;
#196 = APPROVAL_ROLE ( '' ) ;
#197 = DATE_AND_TIME ( #18, #232 ) ;
#198 = APPROVAL_DATE_TIME ( #197, #231 ) ;
#199 = EDGE_CURVE ( 'NONE', #88, #89, #142, .T. ) ;
#200 = APPROVAL ( #172, 'UNSPECIFIED' ) ;
#201 = CC_DESIGN_PERSON_AND_ORGANIZATION_ASSIGNMENT ( #168, #169, ( #234 ) ) ;
#202 = PRODUCT_DEFINITION ( 'UNKNOWN', '', #19, #5 ) ;
#203 = EDGE_CURVE ( 'NONE', #88, #87, #145, .T. ) ;
#204 = EDGE_CURVE ( 'NONE', #93, #92, #136, .T. ) ;
#205 = EDGE_CURVE ( 'NONE', #87, #91, #138, .T. ) ;
#206 = EDGE_CURVE ( 'NONE', #94, #87, #107, .T. ) ;
#207 = EDGE_CURVE ( 'NONE', #89, #91, #75, .T. ) ;
#208 = EDGE_CURVE ( 'NONE', #90, #88, #68, .T. ) ;
#209 = EDGE_CURVE ( 'NONE', #90, #94, #73, .T. ) ;
#210 = EDGE_CURVE ( 'NONE', #91, #92, #64, .T. ) ;
#211 = EDGE_CURVE ( 'NONE', #89, #93, #86, .T. ) ;
#212 = EDGE_CURVE ( 'NONE', #92, #94, #83, .T. ) ;
#213 = EDGE_CURVE ( 'NONE', #93, #90, #57, .T. ) ;
#214 = ADVANCED_FACE ( 'NONE', ( #16 ), #144, .F. ) ;
#215 = ADVANCED_FACE ( 'NONE', ( #43 ), #62, .F. ) ;
#216 = ADVANCED_FACE ( 'NONE', ( #26 ), #53, .T. ) ;
#217 = ADVANCED_FACE ( 'NONE', ( #48 ), #116, .F. ) ;
#218 = ADVANCED_FACE ( 'NONE', ( #38 ), #151, .F. ) ;
#219 = ADVANCED_FACE ( 'NONE', ( #8 ), #155, .F. ) ;
#220 = CC_DESIGN_PERSON_AND_ORGANIZATION_ASSIGNMENT ( #176, #177, ( #202 ) ) ;
#221 = LOCAL_TIME ( 15, 29, 15.00000000000000000, #23 ) ;
#222 = LOCAL_TIME ( 15, 29, 15.00000000000000000, #37 ) ;
#223 = CC_DESIGN_DATE_AND_TIME_ASSIGNMENT ( #178, #179, ( #202 ) ) ;
#224 = APPROVAL ( #181, 'UNSPECIFIED' ) ;
#225 = LOCAL_TIME ( 15, 29, 15.00000000000000000, #28 ) ;
#226 = CC_DESIGN_PERSON_AND_ORGANIZATION_ASSIGNMENT ( #185, #186, ( #19 ) ) ;
#227 = CC_DESIGN_PERSON_AND_ORGANIZATION_ASSIGNMENT ( #187, #188, ( #19 ) ) ;
#228 = CC_DESIGN_PERSON_AND_ORGANIZATION_ASSIGNMENT ( #190, #191, ( #7 ) ) ;
#229 = LOCAL_TIME ( 15, 29, 15.00000000000000000, #33 ) ;
#230 = CC_DESIGN_DATE_AND_TIME_ASSIGNMENT ( #192, #193, ( #7 ) ) ;
#231 = APPROVAL ( #195, 'UNSPECIFIED' ) ;
#232 = LOCAL_TIME ( 15, 29, 15.00000000000000000, #22 ) ;
#233 = PRODUCT_RELATED_PRODUCT_CATEGORY ( 'detail', '', ( #234 ) ) ;
#234 = PRODUCT ( 'sone3D', 'sone3D', '', ( #167 ) ) ;
#235 = UNCERTAINTY_MEASURE_WITH_UNIT (LENGTH_MEASURE( 1.000000000000000100E-005 ), #159, 'distance_accuracy_value', 'NONE');
#236 = PERSON ( 'UNSPECIFIED', 'UNSPECIFIED', 'UNSPECIFIED', ('UNSPECIFIED'), ('UNSPECIFIED'), ('UNSPECIFIED') ) ;
#237 = ADVANCED_BREP_SHAPE_REPRESENTATION ( 'sone3D', ( #3, #49 ), #52 ) ;
ENDSEC;
END-ISO-10303-21;
