ISO-10303-21;
HEADER;
FILE_DESCRIPTION (( 'STEP AP203' ),
    '1' );
FILE_NAME ('sone3D.STEP',
    '2013-08-09T06:28:47',
    ( '' ),
    ( '' ),
    'SwSTEP 2.0',
    'SolidWorks 2012',
    '' );
FILE_SCHEMA (( 'CONFIG_CONTROL_DESIGN' ));
ENDSEC;

DATA;
#1 = EDGE_CURVE ( 'NONE', #143, #138, #137, .T. ) ;
#2 = CC_DESIGN_PERSON_AND_ORGANIZATION_ASSIGNMENT ( #202, #203, ( #36 ) ) ;
#3 = EDGE_CURVE ( 'NONE', #144, #142, #133, .T. ) ;
#4 = EDGE_CURVE ( 'NONE', #139, #143, #130, .T. ) ;
#5 = EDGE_CURVE ( 'NONE', #145, #140, #127, .T. ) ;
#6 = EDGE_CURVE ( 'NONE', #143, #144, #124, .T. ) ;
#7 = EDGE_CURVE ( 'NONE', #142, #139, #121, .T. ) ;
#8 = EDGE_CURVE ( 'NONE', #139, #140, #118, .T. ) ;
#9 = EDGE_CURVE ( 'NONE', #140, #138, #115, .T. ) ;
#10 = APPROVAL ( #229, 'UNSPECIFIED' ) ;
#11 = CC_DESIGN_DATE_AND_TIME_ASSIGNMENT ( #226, #227, ( #57 ) ) ;
#12 = PRODUCT_RELATED_PRODUCT_CATEGORY ( 'detail', '', ( #36 ) ) ;
#13 = LOCAL_TIME ( 15, 28, 46.00000000000000000, #68 ) ;
#14 = LOCAL_TIME ( 15, 28, 46.00000000000000000, #72 ) ;
#15 = CC_DESIGN_PERSON_AND_ORGANIZATION_ASSIGNMENT ( #224, #225, ( #57 ) ) ;
#16 = LOCAL_TIME ( 15, 28, 46.00000000000000000, #71 ) ;
#17 = APPROVAL ( #215, 'UNSPECIFIED' ) ;
#18 = CC_DESIGN_PERSON_AND_ORGANIZATION_ASSIGNMENT ( #221, #222, ( #66 ) ) ;
#19 = CC_DESIGN_PERSON_AND_ORGANIZATION_ASSIGNMENT ( #219, #220, ( #66 ) ) ;
#20 = EDGE_CURVE ( 'NONE', #142, #145, #112, .T. ) ;
#21 = EDGE_CURVE ( 'NONE', #141, #145, #109, .T. ) ;
#22 = EDGE_CURVE ( 'NONE', #138, #141, #106, .T. ) ;
#23 = EDGE_CURVE ( 'NONE', #144, #141, #103, .T. ) ;
#24 = ADVANCED_FACE ( 'NONE', ( #49 ), #134, .F. ) ;
#25 = ADVANCED_FACE ( 'NONE', ( #40 ), #95, .F. ) ;
#26 = ADVANCED_FACE ( 'NONE', ( #73 ), #92, .T. ) ;
#27 = ADVANCED_FACE ( 'NONE', ( #61 ), #101, .F. ) ;
#28 = ADVANCED_FACE ( 'NONE', ( #64 ), #176, .F. ) ;
#29 = ADVANCED_FACE ( 'NONE', ( #79 ), #181, .F. ) ;
#30 = APPROVAL ( #206, 'UNSPECIFIED' ) ;
#31 = CC_DESIGN_PERSON_AND_ORGANIZATION_ASSIGNMENT ( #210, #211, ( #32 ) ) ;
#32 = PRODUCT_DEFINITION ( 'UNKNOWN', '', #66, #39 ) ;
#33 = LOCAL_TIME ( 15, 28, 46.00000000000000000, #55 ) ;
#34 = LOCAL_TIME ( 15, 28, 46.00000000000000000, #76 ) ;
#35 = CC_DESIGN_DATE_AND_TIME_ASSIGNMENT ( #212, #213, ( #32 ) ) ;
#36 = PRODUCT ( 'sone3D', 'sone3D', '', ( #201 ) ) ;
#37 = PRODUCT_DEFINITION_SHAPE ( 'NONE', 'NONE',  #32 ) ;
#38 = MANIFOLD_SOLID_BREP ( 'ÎÞ½ - µoµ1', #52 ) ;
#39 = DESIGN_CONTEXT ( 'detailed design', #234, 'design' ) ;
#40 = FACE_OUTER_BOUND ( 'NONE', #149, .T. ) ;
#41 = CALENDAR_DATE ( 2013, 9, 8 ) ;
#42 = CC_DESIGN_APPROVAL ( #17, ( #66 ) ) ;
#43 = VECTOR ( 'NONE', #116, 1000.000000000000000 ) ;
#44 = AXIS2_PLACEMENT_3D ( 'NONE', #99, #98, #94 ) ;
#45 = APPROVAL_PERSON_ORGANIZATION ( #228, #10, #230 ) ;
#46 = VECTOR ( 'NONE', #119, 1000.000000000000000 ) ;
#47 = VECTOR ( 'NONE', #135, 1000.000000000000000 ) ;
#48 = CALENDAR_DATE ( 2013, 9, 8 ) ;
#49 = FACE_OUTER_BOUND ( 'NONE', #151, .T. ) ;
#50 = VECTOR ( 'NONE', #88, 1000.000000000000000 ) ;
#51 = VECTOR ( 'NONE', #107, 1000.000000000000000 ) ;
#52 = CLOSED_SHELL ( 'NONE', ( #28, #29, #27, #25, #26, #24 ) ) ;
#53 = VECTOR ( 'NONE', #125, 1000.000000000000000 ) ;
#54 = VECTOR ( 'NONE', #110, 1000.000000000000000 ) ;
#55 = COORDINATED_UNIVERSAL_TIME_OFFSET ( 9, 0, .AHEAD. ) ;
#56 = VECTOR ( 'NONE', #122, 1000.000000000000000 ) ;
#57 = SECURITY_CLASSIFICATION ( '', '', #223 ) ;
#58 = AXIS2_PLACEMENT_3D ( 'NONE', #97, #96, #93 ) ;
#59 = VECTOR ( 'NONE', #113, 1000.000000000000000 ) ;
#60 = CC_DESIGN_APPROVAL ( #10, ( #57 ) ) ;
#61 = FACE_OUTER_BOUND ( 'NONE', #147, .T. ) ;
#62 = APPROVAL_PERSON_ORGANIZATION ( #205, #30, #207 ) ;
#63 = VECTOR ( 'NONE', #128, 1000.000000000000000 ) ;
#64 = FACE_OUTER_BOUND ( 'NONE', #148, .T. ) ;
#65 = CALENDAR_DATE ( 2013, 9, 8 ) ;
#66 = PRODUCT_DEFINITION_FORMATION_WITH_SPECIFIED_SOURCE ( 'ANY', '', #36, .NOT_KNOWN. ) ;
#67 = AXIS2_PLACEMENT_3D ( 'NONE', #182, #183, #184 ) ;
#68 = COORDINATED_UNIVERSAL_TIME_OFFSET ( 9, 0, .AHEAD. ) ;
#69 = ORGANIZATION ( 'UNSPECIFIED', 'UNSPECIFIED', '' ) ;
#70 = CC_DESIGN_SECURITY_CLASSIFICATION ( #57, ( #66 ) ) ;
#71 = COORDINATED_UNIVERSAL_TIME_OFFSET ( 9, 0, .AHEAD. ) ;
#72 = COORDINATED_UNIVERSAL_TIME_OFFSET ( 9, 0, .AHEAD. ) ;
#73 = FACE_OUTER_BOUND ( 'NONE', #150, .T. ) ;
#74 = AXIS2_PLACEMENT_3D ( 'NONE', #178, #179, #180 ) ;
#75 = CALENDAR_DATE ( 2013, 9, 8 ) ;
#76 = COORDINATED_UNIVERSAL_TIME_OFFSET ( 9, 0, .AHEAD. ) ;
#77 = CC_DESIGN_APPROVAL ( #30, ( #32 ) ) ;
#78 = AXIS2_PLACEMENT_3D ( 'NONE', #197, #198, #199 ) ;
#79 = FACE_OUTER_BOUND ( 'NONE', #146, .T. ) ;
#80 = VECTOR ( 'NONE', #104, 1000.000000000000000 ) ;
#81 = VECTOR ( 'NONE', #131, 1000.000000000000000 ) ;
#82 = AXIS2_PLACEMENT_3D ( 'NONE', #89, #87, #177 ) ;
#83 = CALENDAR_DATE ( 2013, 9, 8 ) ;
#84 = APPROVAL_PERSON_ORGANIZATION ( #214, #17, #216 ) ;
#85 = AXIS2_PLACEMENT_3D ( 'NONE', #90, #91, #100 ) ;
#86 =( GEOMETRIC_REPRESENTATION_CONTEXT ( 3 ) GLOBAL_UNCERTAINTY_ASSIGNED_CONTEXT ( ( #237 ) ) GLOBAL_UNIT_ASSIGNED_CONTEXT ( ( #193, #194, #195 ) ) REPRESENTATION_CONTEXT ( 'NONE', 'WORKASPACE' ) );
#87 = DIRECTION ( 'NONE',  ( -1.000000000000000000, 0.0000000000000000000, 0.0000000000000000000 ) ) ;
#88 = DIRECTION ( 'NONE',  ( -0.0000000000000000000, -0.0000000000000000000, -1.000000000000000000 ) ) ;
#89 = CARTESIAN_POINT ( 'NONE',  ( 5.000000000000000900, 1.000000000000000000, 500.0000000000000000 ) ) ;
#90 = CARTESIAN_POINT ( 'NONE',  ( 0.0000000000000000000, 0.0000000000000000000, 500.0000000000000000 ) ) ;
#91 = DIRECTION ( 'NONE',  ( -0.0000000000000000000, 0.0000000000000000000, 1.000000000000000000 ) ) ;
#92 = PLANE ( 'NONE',  #85 ) ;
#93 = DIRECTION ( 'NONE',  ( 1.000000000000000000, -1.084202172485504300E-016, 0.0000000000000000000 ) ) ;
#94 = DIRECTION ( 'NONE',  ( 1.000000000000000000, 0.0000000000000000000, 0.0000000000000000000 ) ) ;
#95 = PLANE ( 'NONE',  #58 ) ;
#96 = DIRECTION ( 'NONE',  ( -1.084202172485504300E-016, -1.000000000000000000, 0.0000000000000000000 ) ) ;
#97 = CARTESIAN_POINT ( 'NONE',  ( -5.000000000000000900, 1.000000000000001100, 500.0000000000000000 ) ) ;
#98 = DIRECTION ( 'NONE',  ( -0.0000000000000000000, 0.0000000000000000000, 1.000000000000000000 ) ) ;
#99 = CARTESIAN_POINT ( 'NONE',  ( 0.0000000000000000000, 0.0000000000000000000, -500.0000000000000000 ) ) ;
#100 = DIRECTION ( 'NONE',  ( 1.000000000000000000, 0.0000000000000000000, 0.0000000000000000000 ) ) ;
#101 = PLANE ( 'NONE',  #82 ) ;
#102 = CARTESIAN_POINT ( 'NONE',  ( -5.000000000000000900, -1.000000000000001100, 500.0000000000000000 ) ) ;
#103 = LINE ( 'NONE', #102, #50 ) ;
#104 = DIRECTION ( 'NONE',  ( 0.0000000000000000000, -1.000000000000000000, 0.0000000000000000000 ) ) ;
#105 = CARTESIAN_POINT ( 'NONE',  ( -5.000000000000000900, 1.000000000000001100, -500.0000000000000000 ) ) ;
#106 = LINE ( 'NONE', #105, #80 ) ;
#107 = DIRECTION ( 'NONE',  ( 1.000000000000000000, 6.505213034913025400E-017, 0.0000000000000000000 ) ) ;
#108 = CARTESIAN_POINT ( 'NONE',  ( -5.000000000000000900, -1.000000000000001100, -500.0000000000000000 ) ) ;
#109 = LINE ( 'NONE', #108, #51 ) ;
#110 = DIRECTION ( 'NONE',  ( -0.0000000000000000000, -0.0000000000000000000, -1.000000000000000000 ) ) ;
#111 = CARTESIAN_POINT ( 'NONE',  ( 5.000000000000000900, -1.000000000000000400, 500.0000000000000000 ) ) ;
#112 = LINE ( 'NONE', #111, #54 ) ;
#113 = DIRECTION ( 'NONE',  ( -1.000000000000000000, 1.084202172485504300E-016, -0.0000000000000000000 ) ) ;
#114 = CARTESIAN_POINT ( 'NONE',  ( -5.000000000000000900, 1.000000000000001100, -500.0000000000000000 ) ) ;
#115 = LINE ( 'NONE', #114, #59 ) ;
#116 = DIRECTION ( 'NONE',  ( -0.0000000000000000000, -0.0000000000000000000, -1.000000000000000000 ) ) ;
#117 = CARTESIAN_POINT ( 'NONE',  ( 5.000000000000000900, 1.000000000000000000, 500.0000000000000000 ) ) ;
#118 = LINE ( 'NONE', #117, #43 ) ;
#119 = DIRECTION ( 'NONE',  ( -0.0000000000000000000, 1.000000000000000000, -0.0000000000000000000 ) ) ;
#120 = CARTESIAN_POINT ( 'NONE',  ( 5.000000000000000900, 1.000000000000000000, 500.0000000000000000 ) ) ;
#121 = LINE ( 'NONE', #120, #46 ) ;
#122 = DIRECTION ( 'NONE',  ( 0.0000000000000000000, -1.000000000000000000, 0.0000000000000000000 ) ) ;
#123 = CARTESIAN_POINT ( 'NONE',  ( -5.000000000000000900, 1.000000000000001100, 500.0000000000000000 ) ) ;
#124 = LINE ( 'NONE', #123, #56 ) ;
#125 = DIRECTION ( 'NONE',  ( -0.0000000000000000000, 1.000000000000000000, -0.0000000000000000000 ) ) ;
#126 = CARTESIAN_POINT ( 'NONE',  ( 5.000000000000000900, 1.000000000000000000, -500.0000000000000000 ) ) ;
#127 = LINE ( 'NONE', #126, #53 ) ;
#128 = DIRECTION ( 'NONE',  ( -1.000000000000000000, 1.084202172485504300E-016, -0.0000000000000000000 ) ) ;
#129 = CARTESIAN_POINT ( 'NONE',  ( -5.000000000000000900, 1.000000000000001100, 500.0000000000000000 ) ) ;
#130 = LINE ( 'NONE', #129, #63 ) ;
#131 = DIRECTION ( 'NONE',  ( 1.000000000000000000, 6.505213034913025400E-017, 0.0000000000000000000 ) ) ;
#132 = CARTESIAN_POINT ( 'NONE',  ( -5.000000000000000900, -1.000000000000001100, 500.0000000000000000 ) ) ;
#133 = LINE ( 'NONE', #132, #81 ) ;
#134 = PLANE ( 'NONE',  #44 ) ;
#135 = DIRECTION ( 'NONE',  ( -0.0000000000000000000, -0.0000000000000000000, -1.000000000000000000 ) ) ;
#136 = CARTESIAN_POINT ( 'NONE',  ( -5.000000000000000900, 1.000000000000001100, 500.0000000000000000 ) ) ;
#137 = LINE ( 'NONE', #136, #47 ) ;
#138 = VERTEX_POINT ( 'NONE', #185 ) ;
#139 = VERTEX_POINT ( 'NONE', #186 ) ;
#140 = VERTEX_POINT ( 'NONE', #187 ) ;
#141 = VERTEX_POINT ( 'NONE', #188 ) ;
#142 = VERTEX_POINT ( 'NONE', #189 ) ;
#143 = VERTEX_POINT ( 'NONE', #190 ) ;
#144 = VERTEX_POINT ( 'NONE', #191 ) ;
#145 = VERTEX_POINT ( 'NONE', #192 ) ;
#146 = EDGE_LOOP ( 'NONE', ( #167, #169, #171, #170 ) ) ;
#147 = EDGE_LOOP ( 'NONE', ( #166, #164, #163, #165 ) ) ;
#148 = EDGE_LOOP ( 'NONE', ( #174, #175, #172, #168 ) ) ;
#149 = EDGE_LOOP ( 'NONE', ( #162, #160, #161, #158 ) ) ;
#150 = EDGE_LOOP ( 'NONE', ( #157, #155, #156, #159 ) ) ;
#151 = EDGE_LOOP ( 'NONE', ( #154, #153, #152, #173 ) ) ;
#152 = ORIENTED_EDGE ( 'NONE', *, *, #5, .F. ) ;
#153 = ORIENTED_EDGE ( 'NONE', *, *, #9, .F. ) ;
#154 = ORIENTED_EDGE ( 'NONE', *, *, #22, .F. ) ;
#155 = ORIENTED_EDGE ( 'NONE', *, *, #3, .T. ) ;
#156 = ORIENTED_EDGE ( 'NONE', *, *, #7, .T. ) ;
#157 = ORIENTED_EDGE ( 'NONE', *, *, #6, .T. ) ;
#158 = ORIENTED_EDGE ( 'NONE', *, *, #8, .T. ) ;
#159 = ORIENTED_EDGE ( 'NONE', *, *, #4, .T. ) ;
#160 = ORIENTED_EDGE ( 'NONE', *, *, #1, .F. ) ;
#161 = ORIENTED_EDGE ( 'NONE', *, *, #4, .F. ) ;
#162 = ORIENTED_EDGE ( 'NONE', *, *, #9, .T. ) ;
#163 = ORIENTED_EDGE ( 'NONE', *, *, #7, .F. ) ;
#164 = ORIENTED_EDGE ( 'NONE', *, *, #8, .F. ) ;
#165 = ORIENTED_EDGE ( 'NONE', *, *, #20, .T. ) ;
#166 = ORIENTED_EDGE ( 'NONE', *, *, #5, .T. ) ;
#167 = ORIENTED_EDGE ( 'NONE', *, *, #21, .T. ) ;
#168 = ORIENTED_EDGE ( 'NONE', *, *, #1, .T. ) ;
#169 = ORIENTED_EDGE ( 'NONE', *, *, #20, .F. ) ;
#170 = ORIENTED_EDGE ( 'NONE', *, *, #23, .T. ) ;
#171 = ORIENTED_EDGE ( 'NONE', *, *, #3, .F. ) ;
#172 = ORIENTED_EDGE ( 'NONE', *, *, #6, .F. ) ;
#173 = ORIENTED_EDGE ( 'NONE', *, *, #21, .F. ) ;
#174 = ORIENTED_EDGE ( 'NONE', *, *, #22, .T. ) ;
#175 = ORIENTED_EDGE ( 'NONE', *, *, #23, .F. ) ;
#176 = PLANE ( 'NONE',  #74 ) ;
#177 = DIRECTION ( 'NONE',  ( 0.0000000000000000000, 0.0000000000000000000, 1.000000000000000000 ) ) ;
#178 = CARTESIAN_POINT ( 'NONE',  ( -5.000000000000000900, 1.000000000000001100, 500.0000000000000000 ) ) ;
#179 = DIRECTION ( 'NONE',  ( 1.000000000000000000, 0.0000000000000000000, -0.0000000000000000000 ) ) ;
#180 = DIRECTION ( 'NONE',  ( -0.0000000000000000000, 0.0000000000000000000, -1.000000000000000000 ) ) ;
#181 = PLANE ( 'NONE',  #67 ) ;
#182 = CARTESIAN_POINT ( 'NONE',  ( -5.000000000000000900, -1.000000000000001100, 500.0000000000000000 ) ) ;
#183 = DIRECTION ( 'NONE',  ( -6.505213034913025400E-017, 1.000000000000000000, 0.0000000000000000000 ) ) ;
#184 = DIRECTION ( 'NONE',  ( -1.000000000000000000, -6.505213034913025400E-017, 0.0000000000000000000 ) ) ;
#185 = CARTESIAN_POINT ( 'NONE',  ( -5.000000000000000900, 1.000000000000001100, -500.0000000000000000 ) ) ;
#186 = CARTESIAN_POINT ( 'NONE',  ( 5.000000000000000900, 1.000000000000000000, 500.0000000000000000 ) ) ;
#187 = CARTESIAN_POINT ( 'NONE',  ( 5.000000000000000900, 1.000000000000000000, -500.0000000000000000 ) ) ;
#188 = CARTESIAN_POINT ( 'NONE',  ( -5.000000000000000900, -1.000000000000001100, -500.0000000000000000 ) ) ;
#189 = CARTESIAN_POINT ( 'NONE',  ( 5.000000000000000900, -1.000000000000000400, 500.0000000000000000 ) ) ;
#190 = CARTESIAN_POINT ( 'NONE',  ( -5.000000000000000900, 1.000000000000001100, 500.0000000000000000 ) ) ;
#191 = CARTESIAN_POINT ( 'NONE',  ( -5.000000000000000900, -1.000000000000001100, 500.0000000000000000 ) ) ;
#192 = CARTESIAN_POINT ( 'NONE',  ( 5.000000000000000900, -1.000000000000000400, -500.0000000000000000 ) ) ;
#193 =( LENGTH_UNIT ( ) NAMED_UNIT ( * ) SI_UNIT ( .MILLI., .METRE. ) );
#194 =( NAMED_UNIT ( * ) PLANE_ANGLE_UNIT ( ) SI_UNIT ( $, .RADIAN. ) );
#195 =( NAMED_UNIT ( * ) SI_UNIT ( $, .STERADIAN. ) SOLID_ANGLE_UNIT ( ) );
#196 = APPLICATION_PROTOCOL_DEFINITION ( 'international standard', 'config_control_design', 1994, #233 ) ;
#197 = CARTESIAN_POINT ( 'NONE',  ( 0.0000000000000000000, 0.0000000000000000000, 0.0000000000000000000 ) ) ;
#198 = DIRECTION ( 'NONE',  ( 0.0000000000000000000, 0.0000000000000000000, 1.000000000000000000 ) ) ;
#199 = DIRECTION ( 'NONE',  ( 1.000000000000000000, 0.0000000000000000000, 0.0000000000000000000 ) ) ;
#200 = SHAPE_DEFINITION_REPRESENTATION ( #37, #235 ) ;
#201 = MECHANICAL_CONTEXT ( 'NONE', #233, 'mechanical' ) ;
#202 = PERSON_AND_ORGANIZATION ( #236, #69 ) ;
#203 = PERSON_AND_ORGANIZATION_ROLE ( 'design_owner' ) ;
#204 = APPLICATION_PROTOCOL_DEFINITION ( 'international standard', 'config_control_design', 1994, #234 ) ;
#205 = PERSON_AND_ORGANIZATION ( #236, #69 ) ;
#206 = APPROVAL_STATUS ( 'not_yet_approved' ) ;
#207 = APPROVAL_ROLE ( '' ) ;
#208 = DATE_AND_TIME ( #41, #33 ) ;
#209 = APPROVAL_DATE_TIME ( #208, #30 ) ;
#210 = PERSON_AND_ORGANIZATION ( #236, #69 ) ;
#211 = PERSON_AND_ORGANIZATION_ROLE ( 'creator' ) ;
#212 = DATE_AND_TIME ( #83, #34 ) ;
#213 = DATE_TIME_ROLE ( 'creation_date' ) ;
#214 = PERSON_AND_ORGANIZATION ( #236, #69 ) ;
#215 = APPROVAL_STATUS ( 'not_yet_approved' ) ;
#216 = APPROVAL_ROLE ( '' ) ;
#217 = DATE_AND_TIME ( #75, #16 ) ;
#218 = APPROVAL_DATE_TIME ( #217, #17 ) ;
#219 = PERSON_AND_ORGANIZATION ( #236, #69 ) ;
#220 = PERSON_AND_ORGANIZATION_ROLE ( 'creator' ) ;
#221 = PERSON_AND_ORGANIZATION ( #236, #69 ) ;
#222 = PERSON_AND_ORGANIZATION_ROLE ( 'design_supplier' ) ;
#223 = SECURITY_CLASSIFICATION_LEVEL ( 'unclassified' ) ;
#224 = PERSON_AND_ORGANIZATION ( #236, #69 ) ;
#225 = PERSON_AND_ORGANIZATION_ROLE ( 'classification_officer' ) ;
#226 = DATE_AND_TIME ( #48, #14 ) ;
#227 = DATE_TIME_ROLE ( 'classification_date' ) ;
#228 = PERSON_AND_ORGANIZATION ( #236, #69 ) ;
#229 = APPROVAL_STATUS ( 'not_yet_approved' ) ;
#230 = APPROVAL_ROLE ( '' ) ;
#231 = DATE_AND_TIME ( #65, #13 ) ;
#232 = APPROVAL_DATE_TIME ( #231, #10 ) ;
#233 = APPLICATION_CONTEXT ( 'configuration controlled 3d designs of mechanical parts and assemblies' ) ;
#234 = APPLICATION_CONTEXT ( 'configuration controlled 3d designs of mechanical parts and assemblies' ) ;
#235 = ADVANCED_BREP_SHAPE_REPRESENTATION ( 'sone3D', ( #38, #78 ), #86 ) ;
#236 = PERSON ( 'UNSPECIFIED', 'UNSPECIFIED', 'UNSPECIFIED', ('UNSPECIFIED'), ('UNSPECIFIED'), ('UNSPECIFIED') ) ;
#237 = UNCERTAINTY_MEASURE_WITH_UNIT (LENGTH_MEASURE( 1.000000000000000100E-005 ), #193, 'distance_accuracy_value', 'NONE');
ENDSEC;
END-ISO-10303-21;
