ISO-10303-21;
HEADER;
FILE_DESCRIPTION (( 'STEP AP203' ),
    '1' );
FILE_NAME ('sone3D.STEP',
    '2017-11-02T00:50:52',
    ( '' ),
    ( '' ),
    'SwSTEP 2.0',
    'SolidWorks 2014',
    '' );
FILE_SCHEMA (( 'CONFIG_CONTROL_DESIGN' ));
ENDSEC;

DATA;
#1 = ADVANCED_FACE ( 'NONE', ( #56 ), #327, .F. ) ;
#2 = FACE_OUTER_BOUND ( 'NONE', #19, .T. ) ;
#3 = PERSON_AND_ORGANIZATION ( #186, #74 ) ;
#4 = EDGE_CURVE ( 'NONE', #276, #75, #310, .T. ) ;
#5 = CC_DESIGN_APPROVAL ( #365, ( #344 ) ) ;
#6 = DIRECTION ( 'NONE',  ( -0.0000000000000000000, -0.0000000000000000000, -1.000000000000000000 ) ) ;
#7 = FACE_OUTER_BOUND ( 'NONE', #162, .T. ) ;
#8 = CARTESIAN_POINT ( 'NONE',  ( 10.50000000000000000, -6.499999999999997300, 500.0000000000000000 ) ) ;
#9 = ORIENTED_EDGE ( 'NONE', *, *, #317, .F. ) ;
#10 = CARTESIAN_POINT ( 'NONE',  ( 6.500000000000000900, -8.673617379884035500E-016, -500.0000000000000000 ) ) ;
#11 = ORIENTED_EDGE ( 'NONE', *, *, #179, .F. ) ;
#12 = DIRECTION ( 'NONE',  ( 0.0000000000000000000, 1.000000000000000000, 0.0000000000000000000 ) ) ;
#13 = PERSON_AND_ORGANIZATION_ROLE ( 'creator' ) ;
#14 = VECTOR ( 'NONE', #209, 1000.000000000000000 ) ;
#15 = ORIENTED_EDGE ( 'NONE', *, *, #150, .T. ) ;
#16 = DIRECTION ( 'NONE',  ( 0.0000000000000000000, 1.000000000000000000, 0.0000000000000000000 ) ) ;
#17 = DIRECTION ( 'NONE',  ( 0.0000000000000000000, 0.0000000000000000000, 1.000000000000000000 ) ) ;
#18 = DIRECTION ( 'NONE',  ( 0.0000000000000000000, 0.0000000000000000000, 1.000000000000000000 ) ) ;
#19 = EDGE_LOOP ( 'NONE', ( #82, #50, #372, #283 ) ) ;
#20 = CARTESIAN_POINT ( 'NONE',  ( -6.500000000000000900, -1.285879139104721000E-015, 500.0000000000000000 ) ) ;
#21 = EDGE_CURVE ( 'NONE', #300, #75, #120, .T. ) ;
#22 = CC_DESIGN_PERSON_AND_ORGANIZATION_ASSIGNMENT ( #134, #164, ( #344 ) ) ;
#23 = DIRECTION ( 'NONE',  ( 0.0000000000000000000, 0.0000000000000000000, 1.000000000000000000 ) ) ;
#24 = ORIENTED_EDGE ( 'NONE', *, *, #368, .T. ) ;
#25 = COORDINATED_UNIVERSAL_TIME_OFFSET ( 9, 0, .AHEAD. ) ;
#26 = LINE ( 'NONE', #117, #249 ) ;
#27 = ORIENTED_EDGE ( 'NONE', *, *, #179, .T. ) ;
#28 = APPROVAL_ROLE ( '' ) ;
#29 = ORIENTED_EDGE ( 'NONE', *, *, #30, .T. ) ;
#30 = EDGE_CURVE ( 'NONE', #337, #230, #292, .T. ) ;
#31 = DIRECTION ( 'NONE',  ( -1.000000000000000000, 0.0000000000000000000, 0.0000000000000000000 ) ) ;
#32 = CARTESIAN_POINT ( 'NONE',  ( -6.500000000000000900, -1.285879139104721000E-015, -500.0000000000000000 ) ) ;
#33 = ORIENTED_EDGE ( 'NONE', *, *, #246, .T. ) ;
#34 = LOCAL_TIME ( 9, 50, 52.00000000000000000, #105 ) ;
#35 = LINE ( 'NONE', #234, #14 ) ;
#36 = ORIENTED_EDGE ( 'NONE', *, *, #80, .T. ) ;
#37 = CARTESIAN_POINT ( 'NONE',  ( 6.500000000000000900, -2.500000000000000400, 500.0000000000000000 ) ) ;
#38 = CARTESIAN_POINT ( 'NONE',  ( -10.50000000000000000, -6.500000000000000900, -500.0000000000000000 ) ) ;
#39 = EDGE_CURVE ( 'NONE', #243, #337, #46, .T. ) ;
#40 = VECTOR ( 'NONE', #163, 1000.000000000000000 ) ;
#41 = CARTESIAN_POINT ( 'NONE',  ( 10.50000000000000000, -6.499999999999997300, 500.0000000000000000 ) ) ;
#42 = EDGE_CURVE ( 'NONE', #375, #230, #316, .T. ) ;
#43 = CARTESIAN_POINT ( 'NONE',  ( -10.50000000000000000, -1.285879139104721000E-015, 500.0000000000000000 ) ) ;
#44 = APPROVAL_DATE_TIME ( #113, #78 ) ;
#45 = CC_DESIGN_DATE_AND_TIME_ASSIGNMENT ( #207, #108, ( #344 ) ) ;
#46 = LINE ( 'NONE', #67, #281 ) ;
#47 = VERTEX_POINT ( 'NONE', #355 ) ;
#48 = SECURITY_CLASSIFICATION_LEVEL ( 'unclassified' ) ;
#49 = CARTESIAN_POINT ( 'NONE',  ( 0.0000000000000000000, 0.0000000000000000000, 0.0000000000000000000 ) ) ;
#50 = ORIENTED_EDGE ( 'NONE', *, *, #42, .F. ) ;
#51 = CIRCLE ( 'NONE', #124, 10.50000000000000000 ) ;
#52 = VERTEX_POINT ( 'NONE', #138 ) ;
#53 = ORIENTED_EDGE ( 'NONE', *, *, #361, .F. ) ;
#54 = APPROVAL_PERSON_ORGANIZATION ( #125, #78, #247 ) ;
#55 = CARTESIAN_POINT ( 'NONE',  ( -10.50000000000000000, -6.500000000000000900, 500.0000000000000000 ) ) ;
#56 = FACE_OUTER_BOUND ( 'NONE', #233, .T. ) ;
#57 = DIRECTION ( 'NONE',  ( 0.0000000000000000000, -1.000000000000000000, 0.0000000000000000000 ) ) ;
#58 = ADVANCED_FACE ( 'NONE', ( #63 ), #256, .T. ) ;
#59 = AXIS2_PLACEMENT_3D ( 'NONE', #366, #18, #314 ) ;
#60 = VECTOR ( 'NONE', #330, 1000.000000000000000 ) ;
#61 = ORIENTED_EDGE ( 'NONE', *, *, #21, .F. ) ;
#62 = COORDINATED_UNIVERSAL_TIME_OFFSET ( 9, 0, .AHEAD. ) ;
#63 = FACE_OUTER_BOUND ( 'NONE', #347, .T. ) ;
#64 = EDGE_CURVE ( 'NONE', #243, #375, #336, .T. ) ;
#65 = PRODUCT_DEFINITION_FORMATION_WITH_SPECIFIED_SOURCE ( 'ANY', '', #223, .NOT_KNOWN. ) ;
#66 = DIRECTION ( 'NONE',  ( -0.0000000000000000000, 0.0000000000000000000, -1.000000000000000000 ) ) ;
#67 = CARTESIAN_POINT ( 'NONE',  ( -6.500000000000000900, -2.500000000000000400, 500.0000000000000000 ) ) ;
#68 = FACE_OUTER_BOUND ( 'NONE', #239, .T. ) ;
#69 = LOCAL_TIME ( 9, 50, 52.00000000000000000, #141 ) ;
#70 = EDGE_LOOP ( 'NONE', ( #143, #114, #351, #275 ) ) ;
#71 = LINE ( 'NONE', #55, #148 ) ;
#72 = APPLICATION_CONTEXT ( 'configuration controlled 3d designs of mechanical parts and assemblies' ) ;
#73 = DIRECTION ( 'NONE',  ( 0.0000000000000000000, -1.000000000000000000, 0.0000000000000000000 ) ) ;
#74 = ORGANIZATION ( 'UNSPECIFIED', 'UNSPECIFIED', '' ) ;
#75 = VERTEX_POINT ( 'NONE', #229 ) ;
#76 = PLANE ( 'NONE',  #142 ) ;
#77 = PLANE ( 'NONE',  #197 ) ;
#78 = APPROVAL ( #286, 'UNSPECIFIED' ) ;
#79 = DIRECTION ( 'NONE',  ( 0.0000000000000000000, 0.0000000000000000000, 1.000000000000000000 ) ) ;
#80 = EDGE_CURVE ( 'NONE', #131, #47, #94, .T. ) ;
#81 = VECTOR ( 'NONE', #174, 1000.000000000000000 ) ;
#82 = ORIENTED_EDGE ( 'NONE', *, *, #112, .F. ) ;
#83 = ADVANCED_FACE ( 'NONE', ( #178, #89 ), #133, .T. ) ;
#84 = APPROVAL_DATE_TIME ( #170, #218 ) ;
#85 = LINE ( 'NONE', #102, #238 ) ;
#86 = DIRECTION ( 'NONE',  ( -0.0000000000000000000, -0.0000000000000000000, -1.000000000000000000 ) ) ;
#87 = UNCERTAINTY_MEASURE_WITH_UNIT (LENGTH_MEASURE( 1.000000000000000100E-005 ), #273, 'distance_accuracy_value', 'NONE');
#88 = DIRECTION ( 'NONE',  ( 1.000000000000000000, 0.0000000000000000000, 0.0000000000000000000 ) ) ;
#89 = FACE_BOUND ( 'NONE', #70, .T. ) ;
#90 =( NAMED_UNIT ( * ) SI_UNIT ( $, .STERADIAN. ) SOLID_ANGLE_UNIT ( ) );
#91 = CARTESIAN_POINT ( 'NONE',  ( 0.0000000000000000000, 0.0000000000000000000, 500.0000000000000000 ) ) ;
#92 = CC_DESIGN_APPROVAL ( #78, ( #65 ) ) ;
#93 = APPROVAL_PERSON_ORGANIZATION ( #176, #218, #305 ) ;
#94 = CIRCLE ( 'NONE', #59, 10.50000000000000000 ) ;
#95 = ORIENTED_EDGE ( 'NONE', *, *, #4, .F. ) ;
#96 = PRODUCT_DEFINITION_SHAPE ( 'NONE', 'NONE',  #344 ) ;
#97 = AXIS2_PLACEMENT_3D ( 'NONE', #147, #31, #295 ) ;
#98 = DIRECTION ( 'NONE',  ( 1.000000000000000000, 0.0000000000000000000, 0.0000000000000000000 ) ) ;
#99 = DIRECTION ( 'NONE',  ( 0.0000000000000000000, 1.000000000000000000, 0.0000000000000000000 ) ) ;
#100 = LINE ( 'NONE', #371, #329 ) ;
#101 = ORIENTED_EDGE ( 'NONE', *, *, #201, .T. ) ;
#102 = CARTESIAN_POINT ( 'NONE',  ( -10.50000000000000000, -6.500000000000000900, 500.0000000000000000 ) ) ;
#103 = CARTESIAN_POINT ( 'NONE',  ( -10.50000000000000000, -1.285879139104721000E-015, 500.0000000000000000 ) ) ;
#104 = CARTESIAN_POINT ( 'NONE',  ( 0.0000000000000000000, 0.0000000000000000000, 500.0000000000000000 ) ) ;
#105 = COORDINATED_UNIVERSAL_TIME_OFFSET ( 9, 0, .AHEAD. ) ;
#106 = VECTOR ( 'NONE', #210, 1000.000000000000000 ) ;
#107 = VERTEX_POINT ( 'NONE', #32 ) ;
#108 = DATE_TIME_ROLE ( 'creation_date' ) ;
#109 = ADVANCED_FACE ( 'NONE', ( #325 ), #323, .T. ) ;
#110 = LINE ( 'NONE', #363, #40 ) ;
#111 = ORIENTED_EDGE ( 'NONE', *, *, #64, .T. ) ;
#112 = EDGE_CURVE ( 'NONE', #230, #181, #26, .T. ) ;
#113 = DATE_AND_TIME ( #195, #274 ) ;
#114 = ORIENTED_EDGE ( 'NONE', *, *, #304, .F. ) ;
#115 = ORIENTED_EDGE ( 'NONE', *, *, #322, .T. ) ;
#116 = CC_DESIGN_PERSON_AND_ORGANIZATION_ASSIGNMENT ( #346, #13, ( #65 ) ) ;
#117 = CARTESIAN_POINT ( 'NONE',  ( 6.500000000000000900, -2.500000000000000400, -500.0000000000000000 ) ) ;
#118 = DIRECTION ( 'NONE',  ( -0.0000000000000000000, -0.0000000000000000000, -1.000000000000000000 ) ) ;
#119 = FACE_OUTER_BOUND ( 'NONE', #364, .T. ) ;
#120 = LINE ( 'NONE', #8, #149 ) ;
#121 = DIRECTION ( 'NONE',  ( -0.0000000000000000000, -0.0000000000000000000, -1.000000000000000000 ) ) ;
#122 = EDGE_CURVE ( 'NONE', #345, #181, #35, .T. ) ;
#123 = CARTESIAN_POINT ( 'NONE',  ( 0.0000000000000000000, 0.0000000000000000000, 500.0000000000000000 ) ) ;
#124 = AXIS2_PLACEMENT_3D ( 'NONE', #136, #79, #171 ) ;
#125 = PERSON_AND_ORGANIZATION ( #186, #74 ) ;
#126 = ORIENTED_EDGE ( 'NONE', *, *, #317, .T. ) ;
#127 = DIRECTION ( 'NONE',  ( -1.000000000000000000, -1.652117596168387800E-016, 0.0000000000000000000 ) ) ;
#128 = CLOSED_SHELL ( 'NONE', ( #83, #202, #58, #259, #318, #1, #245, #109, #349, #232 ) ) ;
#129 = PERSON_AND_ORGANIZATION_ROLE ( 'design_owner' ) ;
#130 = CIRCLE ( 'NONE', #175, 6.500000000000000900 ) ;
#131 = VERTEX_POINT ( 'NONE', #144 ) ;
#132 = CARTESIAN_POINT ( 'NONE',  ( -10.50000000000000000, -6.500000000000000900, 500.0000000000000000 ) ) ;
#133 = PLANE ( 'NONE',  #169 ) ;
#134 = PERSON_AND_ORGANIZATION ( #186, #74 ) ;
#135 = DIRECTION ( 'NONE',  ( -1.000000000000000000, 0.0000000000000000000, 0.0000000000000000000 ) ) ;
#136 = CARTESIAN_POINT ( 'NONE',  ( 0.0000000000000000000, 0.0000000000000000000, 500.0000000000000000 ) ) ;
#137 = CC_DESIGN_PERSON_AND_ORGANIZATION_ASSIGNMENT ( #263, #250, ( #65 ) ) ;
#138 = CARTESIAN_POINT ( 'NONE',  ( -6.500000000000000900, -1.285879139104721000E-015, 500.0000000000000000 ) ) ;
#139 = CYLINDRICAL_SURFACE ( 'NONE', #235, 6.500000000000000900 ) ;
#140 = ORIENTED_EDGE ( 'NONE', *, *, #246, .F. ) ;
#141 = COORDINATED_UNIVERSAL_TIME_OFFSET ( 9, 0, .AHEAD. ) ;
#142 = AXIS2_PLACEMENT_3D ( 'NONE', #359, #182, #127 ) ;
#143 = ORIENTED_EDGE ( 'NONE', *, *, #368, .F. ) ;
#144 = CARTESIAN_POINT ( 'NONE',  ( 10.50000000000000000, -1.285879139104721000E-015, -500.0000000000000000 ) ) ;
#145 = AXIS2_PLACEMENT_3D ( 'NONE', #157, #265, #66 ) ;
#146 = CARTESIAN_POINT ( 'NONE',  ( -6.500000000000000900, -2.500000000000000400, 500.0000000000000000 ) ) ;
#147 = CARTESIAN_POINT ( 'NONE',  ( 10.50000000000000000, -6.499999999999997300, 500.0000000000000000 ) ) ;
#148 = VECTOR ( 'NONE', #227, 1000.000000000000000 ) ;
#149 = VECTOR ( 'NONE', #86, 1000.000000000000000 ) ;
#150 = EDGE_CURVE ( 'NONE', #192, #276, #85, .T. ) ;
#151 = DIRECTION ( 'NONE',  ( 0.0000000000000000000, 0.0000000000000000000, 1.000000000000000000 ) ) ;
#152 = SHAPE_DEFINITION_REPRESENTATION ( #96, #288 ) ;
#153 = CARTESIAN_POINT ( 'NONE',  ( -6.500000000000000900, -2.500000000000000400, 500.0000000000000000 ) ) ;
#154 = ORIENTED_EDGE ( 'NONE', *, *, #332, .T. ) ;
#155 = CARTESIAN_POINT ( 'NONE',  ( 0.0000000000000000000, 0.0000000000000000000, -500.0000000000000000 ) ) ;
#156 = AXIS2_PLACEMENT_3D ( 'NONE', #328, #185, #298 ) ;
#157 = CARTESIAN_POINT ( 'NONE',  ( -6.500000000000000900, -1.285879139104721000E-015, 500.0000000000000000 ) ) ;
#158 = SECURITY_CLASSIFICATION ( '', '', #48 ) ;
#159 = PERSON_AND_ORGANIZATION_ROLE ( 'classification_officer' ) ;
#160 = ORIENTED_EDGE ( 'NONE', *, *, #39, .F. ) ;
#161 = LINE ( 'NONE', #225, #213 ) ;
#162 = EDGE_LOOP ( 'NONE', ( #262, #53, #95, #191 ) ) ;
#163 = DIRECTION ( 'NONE',  ( 0.0000000000000000000, -1.000000000000000000, 0.0000000000000000000 ) ) ;
#164 = PERSON_AND_ORGANIZATION_ROLE ( 'creator' ) ;
#165 = ORIENTED_EDGE ( 'NONE', *, *, #320, .F. ) ;
#166 = DIRECTION ( 'NONE',  ( 0.0000000000000000000, -1.000000000000000000, 0.0000000000000000000 ) ) ;
#167 = AXIS2_PLACEMENT_3D ( 'NONE', #155, #17, #222 ) ;
#168 = DIRECTION ( 'NONE',  ( -0.0000000000000000000, -0.0000000000000000000, -1.000000000000000000 ) ) ;
#169 = AXIS2_PLACEMENT_3D ( 'NONE', #104, #228, #219 ) ;
#170 = DATE_AND_TIME ( #248, #324 ) ;
#171 = DIRECTION ( 'NONE',  ( 1.000000000000000000, 0.0000000000000000000, 0.0000000000000000000 ) ) ;
#172 = FACE_BOUND ( 'NONE', #196, .T. ) ;
#173 = ORIENTED_EDGE ( 'NONE', *, *, #311, .T. ) ;
#174 = DIRECTION ( 'NONE',  ( -0.0000000000000000000, -0.0000000000000000000, -1.000000000000000000 ) ) ;
#175 = AXIS2_PLACEMENT_3D ( 'NONE', #271, #151, #88 ) ;
#176 = PERSON_AND_ORGANIZATION ( #186, #74 ) ;
#177 = CC_DESIGN_PERSON_AND_ORGANIZATION_ASSIGNMENT ( #184, #159, ( #158 ) ) ;
#178 = FACE_OUTER_BOUND ( 'NONE', #353, .T. ) ;
#179 = EDGE_CURVE ( 'NONE', #212, #47, #315, .T. ) ;
#180 = LINE ( 'NONE', #221, #340 ) ;
#181 = VERTEX_POINT ( 'NONE', #10 ) ;
#182 = DIRECTION ( 'NONE',  ( -1.652117596168387800E-016, 1.000000000000000000, 0.0000000000000000000 ) ) ;
#183 = DIRECTION ( 'NONE',  ( 0.0000000000000000000, -0.0000000000000000000, 1.000000000000000000 ) ) ;
#184 = PERSON_AND_ORGANIZATION ( #186, #74 ) ;
#185 = DIRECTION ( 'NONE',  ( 0.0000000000000000000, 0.0000000000000000000, 1.000000000000000000 ) ) ;
#186 = PERSON ( 'UNSPECIFIED', 'UNSPECIFIED', 'UNSPECIFIED', ('UNSPECIFIED'), ('UNSPECIFIED'), ('UNSPECIFIED') ) ;
#187 = VECTOR ( 'NONE', #6, 1000.000000000000000 ) ;
#188 = ORIENTED_EDGE ( 'NONE', *, *, #42, .T. ) ;
#189 = DATE_TIME_ROLE ( 'classification_date' ) ;
#190 = PLANE ( 'NONE',  #226 ) ;
#191 = ORIENTED_EDGE ( 'NONE', *, *, #348, .F. ) ;
#192 = VERTEX_POINT ( 'NONE', #132 ) ;
#193 = DIRECTION ( 'NONE',  ( 0.0000000000000000000, 1.000000000000000000, 0.0000000000000000000 ) ) ;
#194 = DIRECTION ( 'NONE',  ( 1.000000000000000000, 0.0000000000000000000, -0.0000000000000000000 ) ) ;
#195 = CALENDAR_DATE ( 2017, 2, 11 ) ;
#196 = EDGE_LOOP ( 'NONE', ( #154, #334, #29, #290 ) ) ;
#197 = AXIS2_PLACEMENT_3D ( 'NONE', #360, #313, #23 ) ;
#198 = EDGE_LOOP ( 'NONE', ( #270, #251, #24, #296 ) ) ;
#199 = CC_DESIGN_DATE_AND_TIME_ASSIGNMENT ( #255, #189, ( #158 ) ) ;
#200 = APPROVAL_STATUS ( 'not_yet_approved' ) ;
#201 = EDGE_CURVE ( 'NONE', #266, #131, #306, .T. ) ;
#202 = ADVANCED_FACE ( 'NONE', ( #7, #172 ), #241, .F. ) ;
#203 = CIRCLE ( 'NONE', #167, 6.500000000000000900 ) ;
#204 = ORIENTED_EDGE ( 'NONE', *, *, #21, .T. ) ;
#205 =( GEOMETRIC_REPRESENTATION_CONTEXT ( 3 ) GLOBAL_UNCERTAINTY_ASSIGNED_CONTEXT ( ( #87 ) ) GLOBAL_UNIT_ASSIGNED_CONTEXT ( ( #273, #272, #90 ) ) REPRESENTATION_CONTEXT ( 'NONE', 'WORKASPACE' ) );
#206 = ORIENTED_EDGE ( 'NONE', *, *, #201, .F. ) ;
#207 = DATE_AND_TIME ( #282, #362 ) ;
#208 = VECTOR ( 'NONE', #211, 1000.000000000000000 ) ;
#209 = DIRECTION ( 'NONE',  ( -0.0000000000000000000, -0.0000000000000000000, -1.000000000000000000 ) ) ;
#210 = DIRECTION ( 'NONE',  ( 1.000000000000000000, 0.0000000000000000000, 0.0000000000000000000 ) ) ;
#211 = DIRECTION ( 'NONE',  ( 1.000000000000000000, 1.652117596168387800E-016, 0.0000000000000000000 ) ) ;
#212 = VERTEX_POINT ( 'NONE', #358 ) ;
#213 = VECTOR ( 'NONE', #193, 1000.000000000000000 ) ;
#214 = EDGE_LOOP ( 'NONE', ( #326, #287, #319, #173 ) ) ;
#215 = CARTESIAN_POINT ( 'NONE',  ( 6.500000000000000900, -2.500000000000000400, -500.0000000000000000 ) ) ;
#216 = APPROVAL_DATE_TIME ( #291, #365 ) ;
#217 = APPLICATION_PROTOCOL_DEFINITION ( 'international standard', 'config_control_design', 1994, #72 ) ;
#218 = APPROVAL ( #369, 'UNSPECIFIED' ) ;
#219 = DIRECTION ( 'NONE',  ( 1.000000000000000000, 0.0000000000000000000, -0.0000000000000000000 ) ) ;
#220 = FACE_OUTER_BOUND ( 'NONE', #214, .T. ) ;
#221 = CARTESIAN_POINT ( 'NONE',  ( 10.50000000000000000, -6.499999999999997300, -500.0000000000000000 ) ) ;
#222 = DIRECTION ( 'NONE',  ( 1.000000000000000000, 0.0000000000000000000, 0.0000000000000000000 ) ) ;
#223 = PRODUCT ( 'sone3D', 'sone3D', '', ( #308 ) ) ;
#224 = APPROVAL_PERSON_ORGANIZATION ( #299, #365, #28 ) ;
#225 = CARTESIAN_POINT ( 'NONE',  ( 6.500000000000000900, -2.500000000000000400, 500.0000000000000000 ) ) ;
#226 = AXIS2_PLACEMENT_3D ( 'NONE', #303, #12, #183 ) ;
#227 = DIRECTION ( 'NONE',  ( 1.000000000000000000, 1.652117596168387800E-016, 0.0000000000000000000 ) ) ;
#228 = DIRECTION ( 'NONE',  ( 0.0000000000000000000, 0.0000000000000000000, 1.000000000000000000 ) ) ;
#229 = CARTESIAN_POINT ( 'NONE',  ( 10.50000000000000000, -6.499999999999997300, -500.0000000000000000 ) ) ;
#230 = VERTEX_POINT ( 'NONE', #215 ) ;
#231 = VECTOR ( 'NONE', #121, 1000.000000000000000 ) ;
#232 = ADVANCED_FACE ( 'NONE', ( #2 ), #77, .T. ) ;
#233 = EDGE_LOOP ( 'NONE', ( #293, #206, #9, #204 ) ) ;
#234 = CARTESIAN_POINT ( 'NONE',  ( 6.500000000000000900, -8.673617379884035500E-016, 500.0000000000000000 ) ) ;
#235 = AXIS2_PLACEMENT_3D ( 'NONE', #123, #168, #135 ) ;
#236 = CC_DESIGN_APPROVAL ( #218, ( #158 ) ) ;
#237 = DIRECTION ( 'NONE',  ( -0.0000000000000000000, -0.0000000000000000000, -1.000000000000000000 ) ) ;
#238 = VECTOR ( 'NONE', #309, 1000.000000000000000 ) ;
#239 = EDGE_LOOP ( 'NONE', ( #260, #357, #165, #27 ) ) ;
#240 = CARTESIAN_POINT ( 'NONE',  ( -6.500000000000000900, -2.500000000000000400, -500.0000000000000000 ) ) ;
#241 = PLANE ( 'NONE',  #156 ) ;
#242 = CARTESIAN_POINT ( 'NONE',  ( 10.50000000000000000, -1.285879139104721000E-015, 500.0000000000000000 ) ) ;
#243 = VERTEX_POINT ( 'NONE', #153 ) ;
#244 = CARTESIAN_POINT ( 'NONE',  ( 6.500000000000000900, -2.500000000000000400, 500.0000000000000000 ) ) ;
#245 = ADVANCED_FACE ( 'NONE', ( #220 ), #139, .F. ) ;
#246 = EDGE_CURVE ( 'NONE', #192, #300, #71, .T. ) ;
#247 = APPROVAL_ROLE ( '' ) ;
#248 = CALENDAR_DATE ( 2017, 2, 11 ) ;
#249 = VECTOR ( 'NONE', #99, 1000.000000000000000 ) ;
#250 = PERSON_AND_ORGANIZATION_ROLE ( 'design_supplier' ) ;
#251 = ORIENTED_EDGE ( 'NONE', *, *, #311, .F. ) ;
#252 = ORIENTED_EDGE ( 'NONE', *, *, #30, .F. ) ;
#253 = CARTESIAN_POINT ( 'NONE',  ( -10.50000000000000000, -6.500000000000000900, -500.0000000000000000 ) ) ;
#254 = AXIS2_PLACEMENT_3D ( 'NONE', #103, #194, #376 ) ;
#255 = DATE_AND_TIME ( #335, #34 ) ;
#256 = CYLINDRICAL_SURFACE ( 'NONE', #285, 10.50000000000000000 ) ;
#257 = VECTOR ( 'NONE', #268, 1000.000000000000000 ) ;
#258 = CC_DESIGN_SECURITY_CLASSIFICATION ( #158, ( #65 ) ) ;
#259 = ADVANCED_FACE ( 'NONE', ( #68 ), #343, .F. ) ;
#260 = ORIENTED_EDGE ( 'NONE', *, *, #348, .T. ) ;
#261 = VECTOR ( 'NONE', #73, 1000.000000000000000 ) ;
#262 = ORIENTED_EDGE ( 'NONE', *, *, #80, .F. ) ;
#263 = PERSON_AND_ORGANIZATION ( #186, #74 ) ;
#264 = ORIENTED_EDGE ( 'NONE', *, *, #320, .T. ) ;
#265 = DIRECTION ( 'NONE',  ( 1.000000000000000000, 0.0000000000000000000, -0.0000000000000000000 ) ) ;
#266 = VERTEX_POINT ( 'NONE', #312 ) ;
#267 = DESIGN_CONTEXT ( 'detailed design', #338, 'design' ) ;
#268 = DIRECTION ( 'NONE',  ( 1.000000000000000000, 0.0000000000000000000, 0.0000000000000000000 ) ) ;
#269 = FACE_OUTER_BOUND ( 'NONE', #354, .T. ) ;
#270 = ORIENTED_EDGE ( 'NONE', *, *, #342, .F. ) ;
#271 = CARTESIAN_POINT ( 'NONE',  ( 0.0000000000000000000, 0.0000000000000000000, 500.0000000000000000 ) ) ;
#272 =( NAMED_UNIT ( * ) PLANE_ANGLE_UNIT ( ) SI_UNIT ( $, .RADIAN. ) );
#273 =( LENGTH_UNIT ( ) NAMED_UNIT ( * ) SI_UNIT ( .MILLI., .METRE. ) );
#274 = LOCAL_TIME ( 9, 50, 52.00000000000000000, #352 ) ;
#275 = ORIENTED_EDGE ( 'NONE', *, *, #64, .F. ) ;
#276 = VERTEX_POINT ( 'NONE', #253 ) ;
#277 = PRODUCT_RELATED_PRODUCT_CATEGORY ( 'detail', '', ( #223 ) ) ;
#278 = EDGE_CURVE ( 'NONE', #375, #345, #161, .T. ) ;
#279 = DIRECTION ( 'NONE',  ( 0.0000000000000000000, 0.0000000000000000000, 1.000000000000000000 ) ) ;
#280 = VECTOR ( 'NONE', #297, 1000.000000000000000 ) ;
#281 = VECTOR ( 'NONE', #118, 1000.000000000000000 ) ;
#282 = CALENDAR_DATE ( 2017, 2, 11 ) ;
#283 = ORIENTED_EDGE ( 'NONE', *, *, #122, .T. ) ;
#284 = APPLICATION_PROTOCOL_DEFINITION ( 'international standard', 'config_control_design', 1994, #338 ) ;
#285 = AXIS2_PLACEMENT_3D ( 'NONE', #91, #237, #341 ) ;
#286 = APPROVAL_STATUS ( 'not_yet_approved' ) ;
#287 = ORIENTED_EDGE ( 'NONE', *, *, #122, .F. ) ;
#288 = ADVANCED_BREP_SHAPE_REPRESENTATION ( 'sone3D', ( #367, #302 ), #205 ) ;
#289 = LINE ( 'NONE', #20, #60 ) ;
#290 = ORIENTED_EDGE ( 'NONE', *, *, #112, .T. ) ;
#291 = DATE_AND_TIME ( #374, #69 ) ;
#292 = LINE ( 'NONE', #240, #257 ) ;
#293 = ORIENTED_EDGE ( 'NONE', *, *, #361, .T. ) ;
#294 = LINE ( 'NONE', #373, #280 ) ;
#295 = DIRECTION ( 'NONE',  ( 0.0000000000000000000, 0.0000000000000000000, 1.000000000000000000 ) ) ;
#296 = ORIENTED_EDGE ( 'NONE', *, *, #39, .T. ) ;
#297 = DIRECTION ( 'NONE',  ( 0.0000000000000000000, 1.000000000000000000, 0.0000000000000000000 ) ) ;
#298 = DIRECTION ( 'NONE',  ( 1.000000000000000000, 0.0000000000000000000, -0.0000000000000000000 ) ) ;
#299 = PERSON_AND_ORGANIZATION ( #186, #74 ) ;
#300 = VERTEX_POINT ( 'NONE', #41 ) ;
#301 = CARTESIAN_POINT ( 'NONE',  ( -6.500000000000000900, -2.500000000000000400, -500.0000000000000000 ) ) ;
#302 = AXIS2_PLACEMENT_3D ( 'NONE', #49, #279, #98 ) ;
#303 = CARTESIAN_POINT ( 'NONE',  ( -6.500000000000000900, -2.500000000000000400, 500.0000000000000000 ) ) ;
#304 = EDGE_CURVE ( 'NONE', #345, #52, #130, .T. ) ;
#305 = APPROVAL_ROLE ( '' ) ;
#306 = LINE ( 'NONE', #242, #231 ) ;
#307 = ORIENTED_EDGE ( 'NONE', *, *, #322, .F. ) ;
#308 = MECHANICAL_CONTEXT ( 'NONE', #72, 'mechanical' ) ;
#309 = DIRECTION ( 'NONE',  ( -0.0000000000000000000, -0.0000000000000000000, -1.000000000000000000 ) ) ;
#310 = LINE ( 'NONE', #38, #208 ) ;
#311 = EDGE_CURVE ( 'NONE', #52, #107, #289, .T. ) ;
#312 = CARTESIAN_POINT ( 'NONE',  ( 10.50000000000000000, -1.285879139104721000E-015, 500.0000000000000000 ) ) ;
#313 = DIRECTION ( 'NONE',  ( -1.000000000000000000, 0.0000000000000000000, 0.0000000000000000000 ) ) ;
#314 = DIRECTION ( 'NONE',  ( 1.000000000000000000, 0.0000000000000000000, 0.0000000000000000000 ) ) ;
#315 = LINE ( 'NONE', #339, #81 ) ;
#316 = LINE ( 'NONE', #37, #187 ) ;
#317 = EDGE_CURVE ( 'NONE', #300, #266, #294, .T. ) ;
#318 = ADVANCED_FACE ( 'NONE', ( #119 ), #76, .F. ) ;
#319 = ORIENTED_EDGE ( 'NONE', *, *, #304, .T. ) ;
#320 = EDGE_CURVE ( 'NONE', #212, #192, #370, .T. ) ;
#321 = CC_DESIGN_PERSON_AND_ORGANIZATION_ASSIGNMENT ( #3, #129, ( #223 ) ) ;
#322 = EDGE_CURVE ( 'NONE', #266, #212, #51, .T. ) ;
#323 = PLANE ( 'NONE',  #145 ) ;
#324 = LOCAL_TIME ( 9, 50, 52.00000000000000000, #25 ) ;
#325 = FACE_OUTER_BOUND ( 'NONE', #198, .T. ) ;
#326 = ORIENTED_EDGE ( 'NONE', *, *, #332, .F. ) ;
#327 = PLANE ( 'NONE',  #97 ) ;
#328 = CARTESIAN_POINT ( 'NONE',  ( 0.0000000000000000000, 0.0000000000000000000, -500.0000000000000000 ) ) ;
#329 = VECTOR ( 'NONE', #57, 1000.000000000000000 ) ;
#330 = DIRECTION ( 'NONE',  ( -0.0000000000000000000, -0.0000000000000000000, -1.000000000000000000 ) ) ;
#331 = ORIENTED_EDGE ( 'NONE', *, *, #4, .T. ) ;
#332 = EDGE_CURVE ( 'NONE', #181, #107, #203, .T. ) ;
#333 = CARTESIAN_POINT ( 'NONE',  ( -10.50000000000000000, -1.285879139104721000E-015, -500.0000000000000000 ) ) ;
#334 = ORIENTED_EDGE ( 'NONE', *, *, #342, .T. ) ;
#335 = CALENDAR_DATE ( 2017, 2, 11 ) ;
#336 = LINE ( 'NONE', #146, #106 ) ;
#337 = VERTEX_POINT ( 'NONE', #301 ) ;
#338 = APPLICATION_CONTEXT ( 'configuration controlled 3d designs of mechanical parts and assemblies' ) ;
#339 = CARTESIAN_POINT ( 'NONE',  ( -10.50000000000000000, -1.285879139104721000E-015, 500.0000000000000000 ) ) ;
#340 = VECTOR ( 'NONE', #16, 1000.000000000000000 ) ;
#341 = DIRECTION ( 'NONE',  ( -1.000000000000000000, 0.0000000000000000000, 0.0000000000000000000 ) ) ;
#342 = EDGE_CURVE ( 'NONE', #107, #337, #110, .T. ) ;
#343 = PLANE ( 'NONE',  #254 ) ;
#344 = PRODUCT_DEFINITION ( 'UNKNOWN', '', #65, #267 ) ;
#345 = VERTEX_POINT ( 'NONE', #377 ) ;
#346 = PERSON_AND_ORGANIZATION ( #186, #74 ) ;
#347 = EDGE_LOOP ( 'NONE', ( #36, #11, #307, #101 ) ) ;
#348 = EDGE_CURVE ( 'NONE', #47, #276, #350, .T. ) ;
#349 = ADVANCED_FACE ( 'NONE', ( #269 ), #190, .T. ) ;
#350 = LINE ( 'NONE', #333, #261 ) ;
#351 = ORIENTED_EDGE ( 'NONE', *, *, #278, .F. ) ;
#352 = COORDINATED_UNIVERSAL_TIME_OFFSET ( 9, 0, .AHEAD. ) ;
#353 = EDGE_LOOP ( 'NONE', ( #115, #264, #33, #126 ) ) ;
#354 = EDGE_LOOP ( 'NONE', ( #252, #160, #111, #188 ) ) ;
#355 = CARTESIAN_POINT ( 'NONE',  ( -10.50000000000000000, -1.285879139104721000E-015, -500.0000000000000000 ) ) ;
#356 = VECTOR ( 'NONE', #166, 1000.000000000000000 ) ;
#357 = ORIENTED_EDGE ( 'NONE', *, *, #150, .F. ) ;
#358 = CARTESIAN_POINT ( 'NONE',  ( -10.50000000000000000, -1.285879139104721000E-015, 500.0000000000000000 ) ) ;
#359 = CARTESIAN_POINT ( 'NONE',  ( -10.50000000000000000, -6.500000000000000900, 500.0000000000000000 ) ) ;
#360 = CARTESIAN_POINT ( 'NONE',  ( 6.500000000000000900, -2.500000000000000400, 500.0000000000000000 ) ) ;
#361 = EDGE_CURVE ( 'NONE', #75, #131, #180, .T. ) ;
#362 = LOCAL_TIME ( 9, 50, 52.00000000000000000, #62 ) ;
#363 = CARTESIAN_POINT ( 'NONE',  ( -6.500000000000000900, -1.285879139104721000E-015, -500.0000000000000000 ) ) ;
#364 = EDGE_LOOP ( 'NONE', ( #331, #61, #140, #15 ) ) ;
#365 = APPROVAL ( #200, 'UNSPECIFIED' ) ;
#366 = CARTESIAN_POINT ( 'NONE',  ( 0.0000000000000000000, 0.0000000000000000000, -500.0000000000000000 ) ) ;
#367 = MANIFOLD_SOLID_BREP ( 'ÎÞ½ - µoµ1', #128 ) ;
#368 = EDGE_CURVE ( 'NONE', #52, #243, #100, .T. ) ;
#369 = APPROVAL_STATUS ( 'not_yet_approved' ) ;
#370 = LINE ( 'NONE', #43, #356 ) ;
#371 = CARTESIAN_POINT ( 'NONE',  ( -6.500000000000000900, -1.285879139104721000E-015, 500.0000000000000000 ) ) ;
#372 = ORIENTED_EDGE ( 'NONE', *, *, #278, .T. ) ;
#373 = CARTESIAN_POINT ( 'NONE',  ( 10.50000000000000000, -6.499999999999997300, 500.0000000000000000 ) ) ;
#374 = CALENDAR_DATE ( 2017, 2, 11 ) ;
#375 = VERTEX_POINT ( 'NONE', #244 ) ;
#376 = DIRECTION ( 'NONE',  ( -0.0000000000000000000, 0.0000000000000000000, -1.000000000000000000 ) ) ;
#377 = CARTESIAN_POINT ( 'NONE',  ( 6.500000000000000900, -8.673617379884035500E-016, 500.0000000000000000 ) ) ;
ENDSEC;
END-ISO-10303-21;
