ISO-10303-21;
HEADER;
FILE_DESCRIPTION (( 'STEP AP203' ),
    '1' );
FILE_NAME ('sone3D.STEP',
    '2015-08-11T11:28:26',
    ( '' ),
    ( '' ),
    'SwSTEP 2.0',
    'SolidWorks 2012',
    '' );
FILE_SCHEMA (( 'CONFIG_CONTROL_DESIGN' ));
ENDSEC;

DATA;
#1 = PERSON ( 'UNSPECIFIED', 'UNSPECIFIED', 'UNSPECIFIED', ('UNSPECIFIED'), ('UNSPECIFIED'), ('UNSPECIFIED') ) ;
#2 = UNCERTAINTY_MEASURE_WITH_UNIT (LENGTH_MEASURE( 1.000000000000000100E-005 ), #101, 'distance_accuracy_value', 'NONE');
#3 = ADVANCED_BREP_SHAPE_REPRESENTATION ( 'sone3D', ( #93, #18 ), #91 ) ;
#4 = APPLICATION_CONTEXT ( 'configuration controlled 3d designs of mechanical parts and assemblies' ) ;
#5 = APPLICATION_CONTEXT ( 'configuration controlled 3d designs of mechanical parts and assemblies' ) ;
#6 = COORDINATED_UNIVERSAL_TIME_OFFSET ( 9, 0, .AHEAD. ) ;
#7 = VECTOR ( 'NONE', #226, 1000.000000000000000 ) ;
#8 = APPROVAL_PERSON_ORGANIZATION ( #154, #86, #152 ) ;
#9 = FACE_OUTER_BOUND ( 'NONE', #211, .T. ) ;
#10 = APPROVAL_PERSON_ORGANIZATION ( #116, #89, #111 ) ;
#11 = AXIS2_PLACEMENT_3D ( 'NONE', #115, #160, #166 ) ;
#12 = CYLINDRICAL_SURFACE ( 'NONE', #16, 5.000000000000000000 ) ;
#13 = CLOSED_SHELL ( 'NONE', ( #80, #72, #57, #74, #82, #78 ) ) ;
#14 = COORDINATED_UNIVERSAL_TIME_OFFSET ( 9, 0, .AHEAD. ) ;
#15 = VECTOR ( 'NONE', #120, 1000.000000000000000 ) ;
#16 = AXIS2_PLACEMENT_3D ( 'NONE', #222, #176, #239 ) ;
#17 = CALENDAR_DATE ( 2015, 11, 8 ) ;
#18 = AXIS2_PLACEMENT_3D ( 'NONE', #147, #135, #149 ) ;
#19 = COORDINATED_UNIVERSAL_TIME_OFFSET ( 9, 0, .AHEAD. ) ;
#20 = FACE_OUTER_BOUND ( 'NONE', #178, .T. ) ;
#21 = AXIS2_PLACEMENT_3D ( 'NONE', #98, #105, #97 ) ;
#22 = PRODUCT_DEFINITION_FORMATION_WITH_SPECIFIED_SOURCE ( 'ANY', '', #90, .NOT_KNOWN. ) ;
#23 = SECURITY_CLASSIFICATION ( '', '', #163 ) ;
#24 = AXIS2_PLACEMENT_3D ( 'NONE', #225, #201, #207 ) ;
#25 = CC_DESIGN_APPROVAL ( #86, ( #23 ) ) ;
#26 = VECTOR ( 'NONE', #128, 1000.000000000000000 ) ;
#27 = VECTOR ( 'NONE', #234, 1000.000000000000000 ) ;
#28 = VECTOR ( 'NONE', #168, 1000.000000000000000 ) ;
#29 = COORDINATED_UNIVERSAL_TIME_OFFSET ( 9, 0, .AHEAD. ) ;
#30 = AXIS2_PLACEMENT_3D ( 'NONE', #142, #164, #143 ) ;
#31 = FACE_OUTER_BOUND ( 'NONE', #199, .T. ) ;
#32 = COORDINATED_UNIVERSAL_TIME_OFFSET ( 9, 0, .AHEAD. ) ;
#33 = AXIS2_PLACEMENT_3D ( 'NONE', #204, #198, #197 ) ;
#34 = FACE_OUTER_BOUND ( 'NONE', #233, .T. ) ;
#35 = VECTOR ( 'NONE', #165, 1000.000000000000000 ) ;
#36 = APPROVAL_PERSON_ORGANIZATION ( #107, #73, #123 ) ;
#37 = CALENDAR_DATE ( 2015, 11, 8 ) ;
#38 = CALENDAR_DATE ( 2015, 11, 8 ) ;
#39 = FACE_OUTER_BOUND ( 'NONE', #186, .T. ) ;
#40 = VECTOR ( 'NONE', #220, 1000.000000000000000 ) ;
#41 = CALENDAR_DATE ( 2015, 11, 8 ) ;
#42 = ORGANIZATION ( 'UNSPECIFIED', 'UNSPECIFIED', '' ) ;
#43 = CC_DESIGN_APPROVAL ( #73, ( #59 ) ) ;
#44 = VECTOR ( 'NONE', #129, 1000.000000000000000 ) ;
#45 = CC_DESIGN_APPROVAL ( #89, ( #22 ) ) ;
#46 = VECTOR ( 'NONE', #230, 1000.000000000000000 ) ;
#47 = CC_DESIGN_SECURITY_CLASSIFICATION ( #23, ( #22 ) ) ;
#48 = FACE_OUTER_BOUND ( 'NONE', #237, .T. ) ;
#49 = AXIS2_PLACEMENT_3D ( 'NONE', #223, #224, #231 ) ;
#50 = CALENDAR_DATE ( 2015, 11, 8 ) ;
#51 = AXIS2_PLACEMENT_3D ( 'NONE', #131, #132, #139 ) ;
#52 = VECTOR ( 'NONE', #192, 1000.000000000000000 ) ;
#53 = LOCAL_TIME ( 20, 28, 26.00000000000000000, #32 ) ;
#54 = CC_DESIGN_PERSON_AND_ORGANIZATION_ASSIGNMENT ( #119, #95, ( #59 ) ) ;
#55 = LOCAL_TIME ( 20, 28, 26.00000000000000000, #6 ) ;
#56 = CC_DESIGN_PERSON_AND_ORGANIZATION_ASSIGNMENT ( #110, #145, ( #90 ) ) ;
#57 = ADVANCED_FACE ( 'NONE', ( #9 ), #167, .F. ) ;
#58 = EDGE_CURVE ( 'NONE', #210, #206, #235, .T. ) ;
#59 = PRODUCT_DEFINITION ( 'UNKNOWN', '', #22, #94 ) ;
#60 = EDGE_CURVE ( 'NONE', #206, #216, #217, .T. ) ;
#61 = LOCAL_TIME ( 20, 28, 26.00000000000000000, #29 ) ;
#62 = CC_DESIGN_DATE_AND_TIME_ASSIGNMENT ( #121, #114, ( #59 ) ) ;
#63 = CC_DESIGN_DATE_AND_TIME_ASSIGNMENT ( #156, #148, ( #23 ) ) ;
#64 = EDGE_CURVE ( 'NONE', #213, #205, #218, .T. ) ;
#65 = CC_DESIGN_PERSON_AND_ORGANIZATION_ASSIGNMENT ( #159, #158, ( #23 ) ) ;
#66 = CC_DESIGN_PERSON_AND_ORGANIZATION_ASSIGNMENT ( #108, #126, ( #22 ) ) ;
#67 = CC_DESIGN_PERSON_AND_ORGANIZATION_ASSIGNMENT ( #157, #155, ( #22 ) ) ;
#68 = LOCAL_TIME ( 20, 28, 26.00000000000000000, #19 ) ;
#69 = EDGE_CURVE ( 'NONE', #213, #215, #219, .T. ) ;
#70 = EDGE_CURVE ( 'NONE', #215, #212, #193, .T. ) ;
#71 = EDGE_CURVE ( 'NONE', #210, #209, #188, .T. ) ;
#72 = ADVANCED_FACE ( 'NONE', ( #20 ), #180, .F. ) ;
#73 = APPROVAL ( #137, 'UNSPECIFIED' ) ;
#74 = ADVANCED_FACE ( 'NONE', ( #39 ), #12, .T. ) ;
#75 = LOCAL_TIME ( 20, 28, 26.00000000000000000, #14 ) ;
#76 = EDGE_CURVE ( 'NONE', #215, #210, #87, .T. ) ;
#77 = EDGE_CURVE ( 'NONE', #216, #205, #238, .T. ) ;
#78 = ADVANCED_FACE ( 'NONE', ( #31 ), #232, .F. ) ;
#79 = CIRCLE ( 'NONE', #21, 5.000000000000000000 ) ;
#80 = ADVANCED_FACE ( 'NONE', ( #34 ), #141, .F. ) ;
#81 = PRODUCT_RELATED_PRODUCT_CATEGORY ( 'detail', '', ( #90 ) ) ;
#82 = ADVANCED_FACE ( 'NONE', ( #48 ), #150, .T. ) ;
#83 = EDGE_CURVE ( 'NONE', #212, #206, #79, .T. ) ;
#84 = EDGE_CURVE ( 'NONE', #209, #216, #162, .T. ) ;
#85 = EDGE_CURVE ( 'NONE', #209, #213, #99, .T. ) ;
#86 = APPROVAL ( #153, 'UNSPECIFIED' ) ;
#87 = CIRCLE ( 'NONE', #33, 5.000000000000000000 ) ;
#88 = EDGE_CURVE ( 'NONE', #205, #212, #100, .T. ) ;
#89 = APPROVAL ( #125, 'UNSPECIFIED' ) ;
#90 = PRODUCT ( 'sone3D', 'sone3D', '', ( #113 ) ) ;
#91 =( GEOMETRIC_REPRESENTATION_CONTEXT ( 3 ) GLOBAL_UNCERTAINTY_ASSIGNED_CONTEXT ( ( #2 ) ) GLOBAL_UNIT_ASSIGNED_CONTEXT ( ( #101, #102, #118 ) ) REPRESENTATION_CONTEXT ( 'NONE', 'WORKASPACE' ) );
#92 = PRODUCT_DEFINITION_SHAPE ( 'NONE', 'NONE',  #59 ) ;
#93 = MANIFOLD_SOLID_BREP ( 'ÎÞ½ - µoµ1', #13 ) ;
#94 = DESIGN_CONTEXT ( 'detailed design', #5, 'design' ) ;
#95 = PERSON_AND_ORGANIZATION_ROLE ( 'creator' ) ;
#96 = CARTESIAN_POINT ( 'NONE',  ( 5.000000000000000000, 1.836970198721029600E-015, -500.0000000000000000 ) ) ;
#97 = DIRECTION ( 'NONE',  ( 1.000000000000000000, 0.0000000000000000000, 0.0000000000000000000 ) ) ;
#98 = CARTESIAN_POINT ( 'NONE',  ( -5.510910596163089600E-016, 3.000000000000000400, -500.0000000000000000 ) ) ;
#99 = LINE ( 'NONE', #112, #15 ) ;
#100 = LINE ( 'NONE', #146, #26 ) ;
#101 =( LENGTH_UNIT ( ) NAMED_UNIT ( * ) SI_UNIT ( .MILLI., .METRE. ) );
#102 =( NAMED_UNIT ( * ) PLANE_ANGLE_UNIT ( ) SI_UNIT ( $, .RADIAN. ) );
#103 = CARTESIAN_POINT ( 'NONE',  ( -5.000000000000000000, 0.0000000000000000000, -500.0000000000000000 ) ) ;
#104 = CARTESIAN_POINT ( 'NONE',  ( -5.000000000000000900, 3.000000000000000900, -500.0000000000000000 ) ) ;
#105 = DIRECTION ( 'NONE',  ( 0.0000000000000000000, 0.0000000000000000000, 1.000000000000000000 ) ) ;
#106 = DATE_AND_TIME ( #50, #68 ) ;
#107 = PERSON_AND_ORGANIZATION ( #1, #42 ) ;
#108 = PERSON_AND_ORGANIZATION ( #1, #42 ) ;
#109 = CARTESIAN_POINT ( 'NONE',  ( 4.999999999999999100, 3.000000000000001800, 500.0000000000000000 ) ) ;
#110 = PERSON_AND_ORGANIZATION ( #1, #42 ) ;
#111 = APPROVAL_ROLE ( '' ) ;
#112 = CARTESIAN_POINT ( 'NONE',  ( -5.000000000000000000, 0.0000000000000000000, 500.0000000000000000 ) ) ;
#113 = MECHANICAL_CONTEXT ( 'NONE', #4, 'mechanical' ) ;
#114 = DATE_TIME_ROLE ( 'creation_date' ) ;
#115 = CARTESIAN_POINT ( 'NONE',  ( -5.510910596163089600E-016, 3.000000000000000400, 500.0000000000000000 ) ) ;
#116 = PERSON_AND_ORGANIZATION ( #1, #42 ) ;
#117 = CARTESIAN_POINT ( 'NONE',  ( 5.000000000000000000, 1.836970198721029600E-015, 500.0000000000000000 ) ) ;
#118 =( NAMED_UNIT ( * ) SI_UNIT ( $, .STERADIAN. ) SOLID_ANGLE_UNIT ( ) );
#119 = PERSON_AND_ORGANIZATION ( #1, #42 ) ;
#120 = DIRECTION ( 'NONE',  ( 1.000000000000000000, 1.836970198721029700E-016, 0.0000000000000000000 ) ) ;
#121 = DATE_AND_TIME ( #17, #53 ) ;
#122 = APPLICATION_PROTOCOL_DEFINITION ( 'international standard', 'config_control_design', 1994, #4 ) ;
#123 = APPROVAL_ROLE ( '' ) ;
#124 = DATE_AND_TIME ( #37, #75 ) ;
#125 = APPROVAL_STATUS ( 'not_yet_approved' ) ;
#126 = PERSON_AND_ORGANIZATION_ROLE ( 'design_supplier' ) ;
#127 = CARTESIAN_POINT ( 'NONE',  ( -5.000000000000000900, 3.000000000000000900, 500.0000000000000000 ) ) ;
#128 = DIRECTION ( 'NONE',  ( -2.891205793294678300E-016, 1.000000000000000000, 0.0000000000000000000 ) ) ;
#129 = DIRECTION ( 'NONE',  ( 1.000000000000000000, 1.836970198721029700E-016, 0.0000000000000000000 ) ) ;
#130 = CARTESIAN_POINT ( 'NONE',  ( 4.999999999999999100, 3.000000000000001800, -500.0000000000000000 ) ) ;
#131 = CARTESIAN_POINT ( 'NONE',  ( -5.510910596163089600E-016, 3.000000000000000400, -500.0000000000000000 ) ) ;
#132 = DIRECTION ( 'NONE',  ( 0.0000000000000000000, 0.0000000000000000000, 1.000000000000000000 ) ) ;
#133 = CARTESIAN_POINT ( 'NONE',  ( -5.000000000000000000, 0.0000000000000000000, 500.0000000000000000 ) ) ;
#134 = DATE_AND_TIME ( #38, #55 ) ;
#135 = DIRECTION ( 'NONE',  ( 0.0000000000000000000, 0.0000000000000000000, 1.000000000000000000 ) ) ;
#136 = APPROVAL_DATE_TIME ( #106, #89 ) ;
#137 = APPROVAL_STATUS ( 'not_yet_approved' ) ;
#138 = APPLICATION_PROTOCOL_DEFINITION ( 'international standard', 'config_control_design', 1994, #5 ) ;
#139 = DIRECTION ( 'NONE',  ( 1.000000000000000000, 0.0000000000000000000, -0.0000000000000000000 ) ) ;
#140 = APPROVAL_DATE_TIME ( #134, #73 ) ;
#141 = PLANE ( 'NONE',  #30 ) ;
#142 = CARTESIAN_POINT ( 'NONE',  ( -5.000000000000000000, 0.0000000000000000000, 500.0000000000000000 ) ) ;
#143 = DIRECTION ( 'NONE',  ( -2.891205793294678300E-016, 1.000000000000000000, 0.0000000000000000000 ) ) ;
#144 = APPROVAL_DATE_TIME ( #124, #86 ) ;
#145 = PERSON_AND_ORGANIZATION_ROLE ( 'design_owner' ) ;
#146 = CARTESIAN_POINT ( 'NONE',  ( 5.000000000000000000, 1.836970198721029600E-015, -500.0000000000000000 ) ) ;
#147 = CARTESIAN_POINT ( 'NONE',  ( 0.0000000000000000000, 0.0000000000000000000, 0.0000000000000000000 ) ) ;
#148 = DATE_TIME_ROLE ( 'classification_date' ) ;
#149 = DIRECTION ( 'NONE',  ( 1.000000000000000000, 0.0000000000000000000, 0.0000000000000000000 ) ) ;
#150 = PLANE ( 'NONE',  #11 ) ;
#151 = SHAPE_DEFINITION_REPRESENTATION ( #92, #3 ) ;
#152 = APPROVAL_ROLE ( '' ) ;
#153 = APPROVAL_STATUS ( 'not_yet_approved' ) ;
#154 = PERSON_AND_ORGANIZATION ( #1, #42 ) ;
#155 = PERSON_AND_ORGANIZATION_ROLE ( 'creator' ) ;
#156 = DATE_AND_TIME ( #41, #61 ) ;
#157 = PERSON_AND_ORGANIZATION ( #1, #42 ) ;
#158 = PERSON_AND_ORGANIZATION_ROLE ( 'classification_officer' ) ;
#159 = PERSON_AND_ORGANIZATION ( #1, #42 ) ;
#160 = DIRECTION ( 'NONE',  ( 0.0000000000000000000, 0.0000000000000000000, 1.000000000000000000 ) ) ;
#161 = CARTESIAN_POINT ( 'NONE',  ( -5.000000000000000000, 0.0000000000000000000, 500.0000000000000000 ) ) ;
#162 = LINE ( 'NONE', #161, #35 ) ;
#163 = SECURITY_CLASSIFICATION_LEVEL ( 'unclassified' ) ;
#164 = DIRECTION ( 'NONE',  ( 1.000000000000000000, 2.891205793294678300E-016, -0.0000000000000000000 ) ) ;
#165 = DIRECTION ( 'NONE',  ( -0.0000000000000000000, -0.0000000000000000000, -1.000000000000000000 ) ) ;
#166 = DIRECTION ( 'NONE',  ( 1.000000000000000000, 0.0000000000000000000, -0.0000000000000000000 ) ) ;
#167 = PLANE ( 'NONE',  #49 ) ;
#168 = DIRECTION ( 'NONE',  ( -0.0000000000000000000, -0.0000000000000000000, -1.000000000000000000 ) ) ;
#169 = ORIENTED_EDGE ( 'NONE', *, *, #64, .F. ) ;
#170 = ORIENTED_EDGE ( 'NONE', *, *, #70, .T. ) ;
#171 = ORIENTED_EDGE ( 'NONE', *, *, #70, .F. ) ;
#172 = ORIENTED_EDGE ( 'NONE', *, *, #69, .F. ) ;
#173 = ORIENTED_EDGE ( 'NONE', *, *, #64, .T. ) ;
#174 = ORIENTED_EDGE ( 'NONE', *, *, #76, .F. ) ;
#175 = ORIENTED_EDGE ( 'NONE', *, *, #83, .T. ) ;
#176 = DIRECTION ( 'NONE',  ( -0.0000000000000000000, -0.0000000000000000000, -1.000000000000000000 ) ) ;
#177 = ORIENTED_EDGE ( 'NONE', *, *, #58, .F. ) ;
#178 = EDGE_LOOP ( 'NONE', ( #202, #169, #184, #228 ) ) ;
#179 = ORIENTED_EDGE ( 'NONE', *, *, #76, .T. ) ;
#180 = PLANE ( 'NONE',  #24 ) ;
#181 = ORIENTED_EDGE ( 'NONE', *, *, #83, .F. ) ;
#182 = ORIENTED_EDGE ( 'NONE', *, *, #71, .T. ) ;
#183 = ORIENTED_EDGE ( 'NONE', *, *, #85, .T. ) ;
#184 = ORIENTED_EDGE ( 'NONE', *, *, #85, .F. ) ;
#185 = ORIENTED_EDGE ( 'NONE', *, *, #60, .F. ) ;
#186 = EDGE_LOOP ( 'NONE', ( #175, #177, #174, #170 ) ) ;
#187 = ORIENTED_EDGE ( 'NONE', *, *, #88, .T. ) ;
#188 = LINE ( 'NONE', #208, #27 ) ;
#189 = ORIENTED_EDGE ( 'NONE', *, *, #69, .T. ) ;
#190 = ORIENTED_EDGE ( 'NONE', *, *, #77, .F. ) ;
#191 = CARTESIAN_POINT ( 'NONE',  ( 4.999999999999999100, 3.000000000000001800, 500.0000000000000000 ) ) ;
#192 = DIRECTION ( 'NONE',  ( -2.891205793294678300E-016, 1.000000000000000000, 0.0000000000000000000 ) ) ;
#193 = LINE ( 'NONE', #191, #7 ) ;
#194 = ORIENTED_EDGE ( 'NONE', *, *, #88, .F. ) ;
#195 = ORIENTED_EDGE ( 'NONE', *, *, #84, .F. ) ;
#196 = CARTESIAN_POINT ( 'NONE',  ( -5.000000000000000900, 3.000000000000000900, 500.0000000000000000 ) ) ;
#197 = DIRECTION ( 'NONE',  ( 1.000000000000000000, 0.0000000000000000000, 0.0000000000000000000 ) ) ;
#198 = DIRECTION ( 'NONE',  ( 0.0000000000000000000, 0.0000000000000000000, 1.000000000000000000 ) ) ;
#199 = EDGE_LOOP ( 'NONE', ( #185, #181, #194, #190 ) ) ;
#200 = CARTESIAN_POINT ( 'NONE',  ( 5.000000000000000000, 1.836970198721029600E-015, 500.0000000000000000 ) ) ;
#201 = DIRECTION ( 'NONE',  ( -1.836970198721029700E-016, 1.000000000000000000, 0.0000000000000000000 ) ) ;
#202 = ORIENTED_EDGE ( 'NONE', *, *, #77, .T. ) ;
#203 = CARTESIAN_POINT ( 'NONE',  ( -5.000000000000000000, 0.0000000000000000000, -500.0000000000000000 ) ) ;
#204 = CARTESIAN_POINT ( 'NONE',  ( -5.510910596163089600E-016, 3.000000000000000400, 500.0000000000000000 ) ) ;
#205 = VERTEX_POINT ( 'NONE', #96 ) ;
#206 = VERTEX_POINT ( 'NONE', #104 ) ;
#207 = DIRECTION ( 'NONE',  ( -1.000000000000000000, -1.836970198721029700E-016, 0.0000000000000000000 ) ) ;
#208 = CARTESIAN_POINT ( 'NONE',  ( -5.000000000000000000, 0.0000000000000000000, 500.0000000000000000 ) ) ;
#209 = VERTEX_POINT ( 'NONE', #133 ) ;
#210 = VERTEX_POINT ( 'NONE', #127 ) ;
#211 = EDGE_LOOP ( 'NONE', ( #187, #171, #172, #173 ) ) ;
#212 = VERTEX_POINT ( 'NONE', #130 ) ;
#213 = VERTEX_POINT ( 'NONE', #117 ) ;
#214 = ORIENTED_EDGE ( 'NONE', *, *, #58, .T. ) ;
#215 = VERTEX_POINT ( 'NONE', #109 ) ;
#216 = VERTEX_POINT ( 'NONE', #103 ) ;
#217 = LINE ( 'NONE', #229, #46 ) ;
#218 = LINE ( 'NONE', #236, #40 ) ;
#219 = LINE ( 'NONE', #200, #52 ) ;
#220 = DIRECTION ( 'NONE',  ( -0.0000000000000000000, -0.0000000000000000000, -1.000000000000000000 ) ) ;
#221 = ORIENTED_EDGE ( 'NONE', *, *, #60, .T. ) ;
#222 = CARTESIAN_POINT ( 'NONE',  ( -5.510910596163089600E-016, 3.000000000000000400, 500.0000000000000000 ) ) ;
#223 = CARTESIAN_POINT ( 'NONE',  ( 5.000000000000000000, 1.836970198721029600E-015, 500.0000000000000000 ) ) ;
#224 = DIRECTION ( 'NONE',  ( -1.000000000000000000, -2.891205793294678300E-016, 0.0000000000000000000 ) ) ;
#225 = CARTESIAN_POINT ( 'NONE',  ( -5.000000000000000000, 0.0000000000000000000, 500.0000000000000000 ) ) ;
#226 = DIRECTION ( 'NONE',  ( -0.0000000000000000000, -0.0000000000000000000, -1.000000000000000000 ) ) ;
#227 = ORIENTED_EDGE ( 'NONE', *, *, #71, .F. ) ;
#228 = ORIENTED_EDGE ( 'NONE', *, *, #84, .T. ) ;
#229 = CARTESIAN_POINT ( 'NONE',  ( -5.000000000000000000, 0.0000000000000000000, -500.0000000000000000 ) ) ;
#230 = DIRECTION ( 'NONE',  ( 2.891205793294678300E-016, -1.000000000000000000, -0.0000000000000000000 ) ) ;
#231 = DIRECTION ( 'NONE',  ( 2.891205793294678300E-016, -1.000000000000000000, 0.0000000000000000000 ) ) ;
#232 = PLANE ( 'NONE',  #51 ) ;
#233 = EDGE_LOOP ( 'NONE', ( #221, #195, #227, #214 ) ) ;
#234 = DIRECTION ( 'NONE',  ( 2.891205793294678300E-016, -1.000000000000000000, -0.0000000000000000000 ) ) ;
#235 = LINE ( 'NONE', #196, #28 ) ;
#236 = CARTESIAN_POINT ( 'NONE',  ( 5.000000000000000000, 1.836970198721029600E-015, 500.0000000000000000 ) ) ;
#237 = EDGE_LOOP ( 'NONE', ( #182, #183, #189, #179 ) ) ;
#238 = LINE ( 'NONE', #203, #44 ) ;
#239 = DIRECTION ( 'NONE',  ( -1.000000000000000000, 0.0000000000000000000, 0.0000000000000000000 ) ) ;
ENDSEC;
END-ISO-10303-21;
