ISO-10303-21;
HEADER;
FILE_DESCRIPTION (( 'STEP AP203' ),
    '1' );
FILE_NAME ('sone3D.STEP',
    '2015-08-11T11:28:07',
    ( '' ),
    ( '' ),
    'SwSTEP 2.0',
    'SolidWorks 2012',
    '' );
FILE_SCHEMA (( 'CONFIG_CONTROL_DESIGN' ));
ENDSEC;

DATA;
#1 = PERSON ( 'UNSPECIFIED', 'UNSPECIFIED', 'UNSPECIFIED', ('UNSPECIFIED'), ('UNSPECIFIED'), ('UNSPECIFIED') ) ;
#2 = UNCERTAINTY_MEASURE_WITH_UNIT (LENGTH_MEASURE( 1.000000000000000100E-005 ), #205, 'distance_accuracy_value', 'NONE');
#3 = ADVANCED_BREP_SHAPE_REPRESENTATION ( 'sone3D', ( #178, #113 ), #176 ) ;
#4 = APPLICATION_CONTEXT ( 'configuration controlled 3d designs of mechanical parts and assemblies' ) ;
#5 = APPLICATION_CONTEXT ( 'configuration controlled 3d designs of mechanical parts and assemblies' ) ;
#6 = EDGE_LOOP ( 'NONE', ( #47, #73, #12, #82 ) ) ;
#7 = CARTESIAN_POINT ( 'NONE',  ( -3.500000000000000400, 4.500000000000000900, 500.0000000000000000 ) ) ;
#8 = PLANE ( 'NONE',  #120 ) ;
#9 = ORIENTED_EDGE ( 'NONE', *, *, #156, .T. ) ;
#10 = ORIENTED_EDGE ( 'NONE', *, *, #174, .T. ) ;
#11 = LINE ( 'NONE', #87, #137 ) ;
#12 = ORIENTED_EDGE ( 'NONE', *, *, #152, .F. ) ;
#13 = LINE ( 'NONE', #54, #98 ) ;
#14 = DIRECTION ( 'NONE',  ( 1.000000000000000000, 1.836970198721029700E-016, 0.0000000000000000000 ) ) ;
#15 = CARTESIAN_POINT ( 'NONE',  ( 3.499999999999998700, 4.500000000000001800, 500.0000000000000000 ) ) ;
#16 = DIRECTION ( 'NONE',  ( -0.0000000000000000000, -0.0000000000000000000, -1.000000000000000000 ) ) ;
#17 = CARTESIAN_POINT ( 'NONE',  ( -3.500000000000000000, 0.0000000000000000000, 500.0000000000000000 ) ) ;
#18 = DIRECTION ( 'NONE',  ( -1.836970198721029700E-016, 1.000000000000000000, 0.0000000000000000000 ) ) ;
#19 = CARTESIAN_POINT ( 'NONE',  ( 3.500000000000000000, 1.285879139104720600E-015, 500.0000000000000000 ) ) ;
#20 = DIRECTION ( 'NONE',  ( -2.891205793294678300E-016, 1.000000000000000000, 0.0000000000000000000 ) ) ;
#21 = PLANE ( 'NONE',  #135 ) ;
#22 = CARTESIAN_POINT ( 'NONE',  ( -3.500000000000000400, 4.500000000000000900, -500.0000000000000000 ) ) ;
#23 = CARTESIAN_POINT ( 'NONE',  ( 3.500000000000000000, 1.285879139104720600E-015, 500.0000000000000000 ) ) ;
#24 = ORIENTED_EDGE ( 'NONE', *, *, #158, .F. ) ;
#25 = ORIENTED_EDGE ( 'NONE', *, *, #169, .T. ) ;
#26 = DIRECTION ( 'NONE',  ( 1.000000000000000000, 0.0000000000000000000, -0.0000000000000000000 ) ) ;
#27 = DIRECTION ( 'NONE',  ( 0.0000000000000000000, 0.0000000000000000000, 1.000000000000000000 ) ) ;
#28 = CARTESIAN_POINT ( 'NONE',  ( -3.500000000000000000, 0.0000000000000000000, -500.0000000000000000 ) ) ;
#29 = VERTEX_POINT ( 'NONE', #23 ) ;
#30 = VERTEX_POINT ( 'NONE', #22 ) ;
#31 = VERTEX_POINT ( 'NONE', #28 ) ;
#32 = ORIENTED_EDGE ( 'NONE', *, *, #171, .T. ) ;
#33 = VERTEX_POINT ( 'NONE', #75 ) ;
#34 = DIRECTION ( 'NONE',  ( 1.000000000000000000, 1.836970198721029700E-016, 0.0000000000000000000 ) ) ;
#35 = VERTEX_POINT ( 'NONE', #65 ) ;
#36 = DIRECTION ( 'NONE',  ( 2.891205793294678300E-016, -1.000000000000000000, 0.0000000000000000000 ) ) ;
#37 = DIRECTION ( 'NONE',  ( 0.0000000000000000000, 0.0000000000000000000, 1.000000000000000000 ) ) ;
#38 = DIRECTION ( 'NONE',  ( -1.000000000000000000, -1.836970198721029700E-016, 0.0000000000000000000 ) ) ;
#39 = DIRECTION ( 'NONE',  ( -0.0000000000000000000, -0.0000000000000000000, -1.000000000000000000 ) ) ;
#40 = ORIENTED_EDGE ( 'NONE', *, *, #159, .F. ) ;
#41 = VERTEX_POINT ( 'NONE', #58 ) ;
#42 = CARTESIAN_POINT ( 'NONE',  ( -3.500000000000000000, 0.0000000000000000000, -500.0000000000000000 ) ) ;
#43 = ORIENTED_EDGE ( 'NONE', *, *, #174, .F. ) ;
#44 = VERTEX_POINT ( 'NONE', #57 ) ;
#45 = VERTEX_POINT ( 'NONE', #7 ) ;
#46 = EDGE_LOOP ( 'NONE', ( #9, #50, #64, #89 ) ) ;
#47 = ORIENTED_EDGE ( 'NONE', *, *, #171, .F. ) ;
#48 = EDGE_LOOP ( 'NONE', ( #79, #63, #72, #49 ) ) ;
#49 = ORIENTED_EDGE ( 'NONE', *, *, #170, .T. ) ;
#50 = ORIENTED_EDGE ( 'NONE', *, *, #170, .F. ) ;
#51 = EDGE_LOOP ( 'NONE', ( #32, #40, #90, #10 ) ) ;
#52 = PLANE ( 'NONE',  #100 ) ;
#53 = DIRECTION ( 'NONE',  ( 1.000000000000000000, 0.0000000000000000000, -0.0000000000000000000 ) ) ;
#54 = CARTESIAN_POINT ( 'NONE',  ( -3.500000000000000000, 0.0000000000000000000, 500.0000000000000000 ) ) ;
#55 = ORIENTED_EDGE ( 'NONE', *, *, #163, .T. ) ;
#56 = EDGE_LOOP ( 'NONE', ( #83, #66, #25, #70 ) ) ;
#57 = CARTESIAN_POINT ( 'NONE',  ( 3.499999999999998700, 4.500000000000001800, 500.0000000000000000 ) ) ;
#58 = CARTESIAN_POINT ( 'NONE',  ( 3.499999999999998700, 4.500000000000001800, -500.0000000000000000 ) ) ;
#59 = DIRECTION ( 'NONE',  ( -0.0000000000000000000, -0.0000000000000000000, -1.000000000000000000 ) ) ;
#60 = LINE ( 'NONE', #88, #136 ) ;
#61 = CARTESIAN_POINT ( 'NONE',  ( -8.266365894244635300E-016, 4.500000000000000900, -500.0000000000000000 ) ) ;
#62 = CARTESIAN_POINT ( 'NONE',  ( -8.266365894244635300E-016, 4.500000000000000900, -500.0000000000000000 ) ) ;
#63 = ORIENTED_EDGE ( 'NONE', *, *, #163, .F. ) ;
#64 = ORIENTED_EDGE ( 'NONE', *, *, #154, .F. ) ;
#65 = CARTESIAN_POINT ( 'NONE',  ( -3.500000000000000000, 0.0000000000000000000, 500.0000000000000000 ) ) ;
#66 = ORIENTED_EDGE ( 'NONE', *, *, #154, .T. ) ;
#67 = DIRECTION ( 'NONE',  ( -1.000000000000000000, -2.891205793294678300E-016, 0.0000000000000000000 ) ) ;
#68 = DIRECTION ( 'NONE',  ( 1.000000000000000000, 0.0000000000000000000, 0.0000000000000000000 ) ) ;
#69 = DIRECTION ( 'NONE',  ( 0.0000000000000000000, 0.0000000000000000000, 1.000000000000000000 ) ) ;
#70 = ORIENTED_EDGE ( 'NONE', *, *, #158, .T. ) ;
#71 = LINE ( 'NONE', #42, #125 ) ;
#72 = ORIENTED_EDGE ( 'NONE', *, *, #169, .F. ) ;
#73 = ORIENTED_EDGE ( 'NONE', *, *, #155, .F. ) ;
#74 = LINE ( 'NONE', #15, #101 ) ;
#75 = CARTESIAN_POINT ( 'NONE',  ( 3.500000000000000000, 1.285879139104720600E-015, -500.0000000000000000 ) ) ;
#76 = DIRECTION ( 'NONE',  ( 0.0000000000000000000, 0.0000000000000000000, 1.000000000000000000 ) ) ;
#77 = ORIENTED_EDGE ( 'NONE', *, *, #155, .T. ) ;
#78 = CARTESIAN_POINT ( 'NONE',  ( -8.266365894244635300E-016, 4.500000000000000900, 500.0000000000000000 ) ) ;
#79 = ORIENTED_EDGE ( 'NONE', *, *, #152, .T. ) ;
#80 = DIRECTION ( 'NONE',  ( 1.000000000000000000, 0.0000000000000000000, 0.0000000000000000000 ) ) ;
#81 = CARTESIAN_POINT ( 'NONE',  ( -8.266365894244635300E-016, 4.500000000000000900, 500.0000000000000000 ) ) ;
#82 = ORIENTED_EDGE ( 'NONE', *, *, #156, .F. ) ;
#83 = ORIENTED_EDGE ( 'NONE', *, *, #168, .T. ) ;
#84 = EDGE_LOOP ( 'NONE', ( #77, #43, #24, #55 ) ) ;
#85 = CARTESIAN_POINT ( 'NONE',  ( -8.266365894244635300E-016, 4.500000000000000900, 500.0000000000000000 ) ) ;
#86 = PLANE ( 'NONE',  #95 ) ;
#87 = CARTESIAN_POINT ( 'NONE',  ( -3.500000000000000000, 0.0000000000000000000, 500.0000000000000000 ) ) ;
#88 = CARTESIAN_POINT ( 'NONE',  ( 3.500000000000000000, 1.285879139104720600E-015, -500.0000000000000000 ) ) ;
#89 = ORIENTED_EDGE ( 'NONE', *, *, #159, .T. ) ;
#90 = ORIENTED_EDGE ( 'NONE', *, *, #168, .F. ) ;
#91 = APPROVAL_PERSON_ORGANIZATION ( #184, #157, #207 ) ;
#92 = CALENDAR_DATE ( 2015, 11, 8 ) ;
#93 = VECTOR ( 'NONE', #182, 1000.000000000000000 ) ;
#94 = AXIS2_PLACEMENT_3D ( 'NONE', #61, #76, #80 ) ;
#95 = AXIS2_PLACEMENT_3D ( 'NONE', #81, #37, #26 ) ;
#96 = COORDINATED_UNIVERSAL_TIME_OFFSET ( 9, 0, .AHEAD. ) ;
#97 = COORDINATED_UNIVERSAL_TIME_OFFSET ( 9, 0, .AHEAD. ) ;
#98 = VECTOR ( 'NONE', #34, 1000.000000000000000 ) ;
#99 = ORGANIZATION ( 'UNSPECIFIED', 'UNSPECIFIED', '' ) ;
#100 = AXIS2_PLACEMENT_3D ( 'NONE', #62, #27, #53 ) ;
#101 = VECTOR ( 'NONE', #16, 1000.000000000000000 ) ;
#102 = FACE_OUTER_BOUND ( 'NONE', #56, .T. ) ;
#103 = FACE_OUTER_BOUND ( 'NONE', #84, .T. ) ;
#104 = CC_DESIGN_APPROVAL ( #146, ( #133 ) ) ;
#105 = AXIS2_PLACEMENT_3D ( 'NONE', #78, #69, #68 ) ;
#106 = SECURITY_CLASSIFICATION ( '', '', #225 ) ;
#107 = VECTOR ( 'NONE', #193, 1000.000000000000000 ) ;
#108 = COORDINATED_UNIVERSAL_TIME_OFFSET ( 9, 0, .AHEAD. ) ;
#109 = CC_DESIGN_SECURITY_CLASSIFICATION ( #106, ( #133 ) ) ;
#110 = CLOSED_SHELL ( 'NONE', ( #173, #164, #144, #166, #165, #160 ) ) ;
#111 = COORDINATED_UNIVERSAL_TIME_OFFSET ( 9, 0, .AHEAD. ) ;
#112 = FACE_OUTER_BOUND ( 'NONE', #48, .T. ) ;
#113 = AXIS2_PLACEMENT_3D ( 'NONE', #231, #234, #213 ) ;
#114 = AXIS2_PLACEMENT_3D ( 'NONE', #180, #221, #219 ) ;
#115 = FACE_OUTER_BOUND ( 'NONE', #6, .T. ) ;
#116 = VECTOR ( 'NONE', #187, 1000.000000000000000 ) ;
#117 = CALENDAR_DATE ( 2015, 11, 8 ) ;
#118 = CC_DESIGN_APPROVAL ( #142, ( #167 ) ) ;
#119 = VECTOR ( 'NONE', #214, 1000.000000000000000 ) ;
#120 = AXIS2_PLACEMENT_3D ( 'NONE', #17, #18, #38 ) ;
#121 = CYLINDRICAL_SURFACE ( 'NONE', #127, 3.499999999999999600 ) ;
#122 = CALENDAR_DATE ( 2015, 11, 8 ) ;
#123 = CC_DESIGN_APPROVAL ( #157, ( #106 ) ) ;
#124 = CALENDAR_DATE ( 2015, 11, 8 ) ;
#125 = VECTOR ( 'NONE', #14, 1000.000000000000000 ) ;
#126 = CALENDAR_DATE ( 2015, 11, 8 ) ;
#127 = AXIS2_PLACEMENT_3D ( 'NONE', #85, #39, #216 ) ;
#128 = FACE_OUTER_BOUND ( 'NONE', #51, .T. ) ;
#129 = VECTOR ( 'NONE', #196, 1000.000000000000000 ) ;
#130 = FACE_OUTER_BOUND ( 'NONE', #46, .T. ) ;
#131 = COORDINATED_UNIVERSAL_TIME_OFFSET ( 9, 0, .AHEAD. ) ;
#132 = APPROVAL_PERSON_ORGANIZATION ( #198, #142, #212 ) ;
#133 = PRODUCT_DEFINITION_FORMATION_WITH_SPECIFIED_SOURCE ( 'ANY', '', #175, .NOT_KNOWN. ) ;
#134 = APPROVAL_PERSON_ORGANIZATION ( #228, #146, #230 ) ;
#135 = AXIS2_PLACEMENT_3D ( 'NONE', #19, #67, #36 ) ;
#136 = VECTOR ( 'NONE', #20, 1000.000000000000000 ) ;
#137 = VECTOR ( 'NONE', #59, 1000.000000000000000 ) ;
#138 = CC_DESIGN_PERSON_AND_ORGANIZATION_ASSIGNMENT ( #235, #227, ( #133 ) ) ;
#139 = CC_DESIGN_PERSON_AND_ORGANIZATION_ASSIGNMENT ( #229, #188, ( #133 ) ) ;
#140 = LOCAL_TIME ( 20, 28, 7.000000000000000000, #97 ) ;
#141 = CC_DESIGN_DATE_AND_TIME_ASSIGNMENT ( #223, #190, ( #106 ) ) ;
#142 = APPROVAL ( #210, 'UNSPECIFIED' ) ;
#143 = LOCAL_TIME ( 20, 28, 7.000000000000000000, #96 ) ;
#144 = ADVANCED_FACE ( 'NONE', ( #112 ), #21, .F. ) ;
#145 = CC_DESIGN_PERSON_AND_ORGANIZATION_ASSIGNMENT ( #239, #200, ( #167 ) ) ;
#146 = APPROVAL ( #209, 'UNSPECIFIED' ) ;
#147 = CC_DESIGN_DATE_AND_TIME_ASSIGNMENT ( #222, #236, ( #167 ) ) ;
#148 = CIRCLE ( 'NONE', #94, 3.499999999999999600 ) ;
#149 = LOCAL_TIME ( 20, 28, 7.000000000000000000, #111 ) ;
#150 = PRODUCT_RELATED_PRODUCT_CATEGORY ( 'detail', '', ( #175 ) ) ;
#151 = LOCAL_TIME ( 20, 28, 7.000000000000000000, #108 ) ;
#152 = EDGE_CURVE ( 'NONE', #33, #41, #60, .T. ) ;
#153 = CC_DESIGN_PERSON_AND_ORGANIZATION_ASSIGNMENT ( #233, #226, ( #106 ) ) ;
#154 = EDGE_CURVE ( 'NONE', #35, #29, #13, .T. ) ;
#155 = EDGE_CURVE ( 'NONE', #41, #30, #148, .T. ) ;
#156 = EDGE_CURVE ( 'NONE', #31, #33, #71, .T. ) ;
#157 = APPROVAL ( #203, 'UNSPECIFIED' ) ;
#158 = EDGE_CURVE ( 'NONE', #44, #45, #162, .T. ) ;
#159 = EDGE_CURVE ( 'NONE', #35, #31, #11, .T. ) ;
#160 = ADVANCED_FACE ( 'NONE', ( #115 ), #52, .F. ) ;
#161 = LOCAL_TIME ( 20, 28, 7.000000000000000000, #131 ) ;
#162 = CIRCLE ( 'NONE', #105, 3.499999999999999600 ) ;
#163 = EDGE_CURVE ( 'NONE', #44, #41, #74, .T. ) ;
#164 = ADVANCED_FACE ( 'NONE', ( #130 ), #8, .F. ) ;
#165 = ADVANCED_FACE ( 'NONE', ( #102 ), #86, .T. ) ;
#166 = ADVANCED_FACE ( 'NONE', ( #103 ), #121, .T. ) ;
#167 = PRODUCT_DEFINITION ( 'UNKNOWN', '', #133, #177 ) ;
#168 = EDGE_CURVE ( 'NONE', #45, #35, #201, .T. ) ;
#169 = EDGE_CURVE ( 'NONE', #29, #44, #215, .T. ) ;
#170 = EDGE_CURVE ( 'NONE', #29, #33, #191, .T. ) ;
#171 = EDGE_CURVE ( 'NONE', #30, #31, #186, .T. ) ;
#172 = CC_DESIGN_PERSON_AND_ORGANIZATION_ASSIGNMENT ( #211, #238, ( #175 ) ) ;
#173 = ADVANCED_FACE ( 'NONE', ( #128 ), #195, .F. ) ;
#174 = EDGE_CURVE ( 'NONE', #45, #30, #218, .T. ) ;
#175 = PRODUCT ( 'sone3D', 'sone3D', '', ( #199 ) ) ;
#176 =( GEOMETRIC_REPRESENTATION_CONTEXT ( 3 ) GLOBAL_UNCERTAINTY_ASSIGNED_CONTEXT ( ( #2 ) ) GLOBAL_UNIT_ASSIGNED_CONTEXT ( ( #205, #208, #220 ) ) REPRESENTATION_CONTEXT ( 'NONE', 'WORKASPACE' ) );
#177 = DESIGN_CONTEXT ( 'detailed design', #5, 'design' ) ;
#178 = MANIFOLD_SOLID_BREP ( 'ÎÞ½ - µoµ1', #110 ) ;
#179 = PRODUCT_DEFINITION_SHAPE ( 'NONE', 'NONE',  #167 ) ;
#180 = CARTESIAN_POINT ( 'NONE',  ( -3.500000000000000000, 0.0000000000000000000, 500.0000000000000000 ) ) ;
#181 = APPROVAL_DATE_TIME ( #204, #146 ) ;
#182 = DIRECTION ( 'NONE',  ( 9.637352644315594000E-017, -1.000000000000000000, -0.0000000000000000000 ) ) ;
#183 = CARTESIAN_POINT ( 'NONE',  ( -3.500000000000000000, 0.0000000000000000000, -500.0000000000000000 ) ) ;
#184 = PERSON_AND_ORGANIZATION ( #1, #99 ) ;
#185 = SHAPE_DEFINITION_REPRESENTATION ( #179, #3 ) ;
#186 = LINE ( 'NONE', #183, #93 ) ;
#187 = DIRECTION ( 'NONE',  ( -0.0000000000000000000, -0.0000000000000000000, -1.000000000000000000 ) ) ;
#188 = PERSON_AND_ORGANIZATION_ROLE ( 'creator' ) ;
#189 = CARTESIAN_POINT ( 'NONE',  ( 3.500000000000000000, 1.285879139104720600E-015, 500.0000000000000000 ) ) ;
#190 = DATE_TIME_ROLE ( 'classification_date' ) ;
#191 = LINE ( 'NONE', #189, #116 ) ;
#192 = APPLICATION_PROTOCOL_DEFINITION ( 'international standard', 'config_control_design', 1994, #5 ) ;
#193 = DIRECTION ( 'NONE',  ( -2.891205793294678300E-016, 1.000000000000000000, 0.0000000000000000000 ) ) ;
#194 = CARTESIAN_POINT ( 'NONE',  ( 3.500000000000000000, 1.285879139104720600E-015, 500.0000000000000000 ) ) ;
#195 = PLANE ( 'NONE',  #114 ) ;
#196 = DIRECTION ( 'NONE',  ( 9.637352644315594000E-017, -1.000000000000000000, -0.0000000000000000000 ) ) ;
#197 = CARTESIAN_POINT ( 'NONE',  ( -3.500000000000000000, 0.0000000000000000000, 500.0000000000000000 ) ) ;
#198 = PERSON_AND_ORGANIZATION ( #1, #99 ) ;
#199 = MECHANICAL_CONTEXT ( 'NONE', #4, 'mechanical' ) ;
#200 = PERSON_AND_ORGANIZATION_ROLE ( 'creator' ) ;
#201 = LINE ( 'NONE', #197, #129 ) ;
#202 = APPROVAL_DATE_TIME ( #217, #142 ) ;
#203 = APPROVAL_STATUS ( 'not_yet_approved' ) ;
#204 = DATE_AND_TIME ( #126, #161 ) ;
#205 =( LENGTH_UNIT ( ) NAMED_UNIT ( * ) SI_UNIT ( .MILLI., .METRE. ) );
#206 = APPROVAL_DATE_TIME ( #224, #157 ) ;
#207 = APPROVAL_ROLE ( '' ) ;
#208 =( NAMED_UNIT ( * ) PLANE_ANGLE_UNIT ( ) SI_UNIT ( $, .RADIAN. ) );
#209 = APPROVAL_STATUS ( 'not_yet_approved' ) ;
#210 = APPROVAL_STATUS ( 'not_yet_approved' ) ;
#211 = PERSON_AND_ORGANIZATION ( #1, #99 ) ;
#212 = APPROVAL_ROLE ( '' ) ;
#213 = DIRECTION ( 'NONE',  ( 1.000000000000000000, 0.0000000000000000000, 0.0000000000000000000 ) ) ;
#214 = DIRECTION ( 'NONE',  ( -0.0000000000000000000, -0.0000000000000000000, -1.000000000000000000 ) ) ;
#215 = LINE ( 'NONE', #194, #107 ) ;
#216 = DIRECTION ( 'NONE',  ( -1.000000000000000000, 0.0000000000000000000, 0.0000000000000000000 ) ) ;
#217 = DATE_AND_TIME ( #124, #143 ) ;
#218 = LINE ( 'NONE', #232, #119 ) ;
#219 = DIRECTION ( 'NONE',  ( -9.637352644315594000E-017, 1.000000000000000000, 0.0000000000000000000 ) ) ;
#220 =( NAMED_UNIT ( * ) SI_UNIT ( $, .STERADIAN. ) SOLID_ANGLE_UNIT ( ) );
#221 = DIRECTION ( 'NONE',  ( 1.000000000000000000, 9.637352644315594000E-017, -0.0000000000000000000 ) ) ;
#222 = DATE_AND_TIME ( #117, #140 ) ;
#223 = DATE_AND_TIME ( #122, #151 ) ;
#224 = DATE_AND_TIME ( #92, #149 ) ;
#225 = SECURITY_CLASSIFICATION_LEVEL ( 'unclassified' ) ;
#226 = PERSON_AND_ORGANIZATION_ROLE ( 'classification_officer' ) ;
#227 = PERSON_AND_ORGANIZATION_ROLE ( 'design_supplier' ) ;
#228 = PERSON_AND_ORGANIZATION ( #1, #99 ) ;
#229 = PERSON_AND_ORGANIZATION ( #1, #99 ) ;
#230 = APPROVAL_ROLE ( '' ) ;
#231 = CARTESIAN_POINT ( 'NONE',  ( 0.0000000000000000000, 0.0000000000000000000, 0.0000000000000000000 ) ) ;
#232 = CARTESIAN_POINT ( 'NONE',  ( -3.500000000000000400, 4.500000000000000900, 500.0000000000000000 ) ) ;
#233 = PERSON_AND_ORGANIZATION ( #1, #99 ) ;
#234 = DIRECTION ( 'NONE',  ( 0.0000000000000000000, 0.0000000000000000000, 1.000000000000000000 ) ) ;
#235 = PERSON_AND_ORGANIZATION ( #1, #99 ) ;
#236 = DATE_TIME_ROLE ( 'creation_date' ) ;
#237 = APPLICATION_PROTOCOL_DEFINITION ( 'international standard', 'config_control_design', 1994, #4 ) ;
#238 = PERSON_AND_ORGANIZATION_ROLE ( 'design_owner' ) ;
#239 = PERSON_AND_ORGANIZATION ( #1, #99 ) ;
ENDSEC;
END-ISO-10303-21;
