ISO-10303-21;
HEADER;
FILE_DESCRIPTION (( 'STEP AP203' ),
    '1' );
FILE_NAME ('sone3D.STEP',
    '2015-08-11T11:27:51',
    ( '' ),
    ( '' ),
    'SwSTEP 2.0',
    'SolidWorks 2012',
    '' );
FILE_SCHEMA (( 'CONFIG_CONTROL_DESIGN' ));
ENDSEC;

DATA;
#1 = UNCERTAINTY_MEASURE_WITH_UNIT (LENGTH_MEASURE( 1.000000000000000100E-005 ), #222, 'distance_accuracy_value', 'NONE');
#2 = ADVANCED_BREP_SHAPE_REPRESENTATION ( 'sone3D', ( #180, #114 ), #177 ) ;
#3 = PERSON ( 'UNSPECIFIED', 'UNSPECIFIED', 'UNSPECIFIED', ('UNSPECIFIED'), ('UNSPECIFIED'), ('UNSPECIFIED') ) ;
#4 = APPLICATION_CONTEXT ( 'configuration controlled 3d designs of mechanical parts and assemblies' ) ;
#5 = APPLICATION_CONTEXT ( 'configuration controlled 3d designs of mechanical parts and assemblies' ) ;
#6 = ORIENTED_EDGE ( 'NONE', *, *, #174, .T. ) ;
#7 = DIRECTION ( 'NONE',  ( -0.0000000000000000000, -0.0000000000000000000, -1.000000000000000000 ) ) ;
#8 = LINE ( 'NONE', #181, #110 ) ;
#9 = CARTESIAN_POINT ( 'NONE',  ( 3.499999999999999600, 3.500000000000001800, -500.0000000000000000 ) ) ;
#10 = VERTEX_POINT ( 'NONE', #70 ) ;
#11 = CARTESIAN_POINT ( 'NONE',  ( -3.500000000000000000, 0.0000000000000000000, -500.0000000000000000 ) ) ;
#12 = DIRECTION ( 'NONE',  ( -1.239088197126290600E-016, 1.000000000000000000, 0.0000000000000000000 ) ) ;
#13 = CARTESIAN_POINT ( 'NONE',  ( -3.500000000000000400, 3.500000000000000900, -500.0000000000000000 ) ) ;
#14 = LINE ( 'NONE', #80, #113 ) ;
#15 = DIRECTION ( 'NONE',  ( 1.000000000000000000, 0.0000000000000000000, 0.0000000000000000000 ) ) ;
#16 = EDGE_LOOP ( 'NONE', ( #19, #72, #68, #69 ) ) ;
#17 = VERTEX_POINT ( 'NONE', #9 ) ;
#18 = ORIENTED_EDGE ( 'NONE', *, *, #142, .T. ) ;
#19 = ORIENTED_EDGE ( 'NONE', *, *, #144, .T. ) ;
#20 = DIRECTION ( 'NONE',  ( -1.000000000000000000, -1.239088197126290600E-016, 0.0000000000000000000 ) ) ;
#21 = CARTESIAN_POINT ( 'NONE',  ( -3.500000000000000000, 0.0000000000000000000, 500.0000000000000000 ) ) ;
#22 = DIRECTION ( 'NONE',  ( 0.0000000000000000000, 0.0000000000000000000, 1.000000000000000000 ) ) ;
#23 = CARTESIAN_POINT ( 'NONE',  ( 3.500000000000000000, 1.285879139104720600E-015, -500.0000000000000000 ) ) ;
#24 = DIRECTION ( 'NONE',  ( 1.000000000000000000, 1.836970198721029700E-016, 0.0000000000000000000 ) ) ;
#25 = CARTESIAN_POINT ( 'NONE',  ( -6.429395695523604200E-016, 3.500000000000000400, -500.0000000000000000 ) ) ;
#26 = LINE ( 'NONE', #37, #102 ) ;
#27 = VERTEX_POINT ( 'NONE', #21 ) ;
#28 = DIRECTION ( 'NONE',  ( -1.239088197126290600E-016, 1.000000000000000000, 0.0000000000000000000 ) ) ;
#29 = ORIENTED_EDGE ( 'NONE', *, *, #165, .T. ) ;
#30 = ORIENTED_EDGE ( 'NONE', *, *, #163, .T. ) ;
#31 = VERTEX_POINT ( 'NONE', #83 ) ;
#32 = DIRECTION ( 'NONE',  ( 1.239088197126290600E-016, -1.000000000000000000, 0.0000000000000000000 ) ) ;
#33 = CARTESIAN_POINT ( 'NONE',  ( -6.429395695523604200E-016, 3.500000000000000400, 500.0000000000000000 ) ) ;
#34 = EDGE_LOOP ( 'NONE', ( #90, #84, #45, #67 ) ) ;
#35 = EDGE_LOOP ( 'NONE', ( #51, #85, #50, #89 ) ) ;
#36 = VERTEX_POINT ( 'NONE', #23 ) ;
#37 = CARTESIAN_POINT ( 'NONE',  ( -3.500000000000000000, 0.0000000000000000000, 500.0000000000000000 ) ) ;
#38 = DIRECTION ( 'NONE',  ( 1.000000000000000000, 1.239088197126290600E-016, -0.0000000000000000000 ) ) ;
#39 = PLANE ( 'NONE',  #111 ) ;
#40 = LINE ( 'NONE', #91, #125 ) ;
#41 = DIRECTION ( 'NONE',  ( 1.000000000000000000, 0.0000000000000000000, 0.0000000000000000000 ) ) ;
#42 = ORIENTED_EDGE ( 'NONE', *, *, #148, .F. ) ;
#43 = CARTESIAN_POINT ( 'NONE',  ( 3.500000000000000000, 1.285879139104720600E-015, 500.0000000000000000 ) ) ;
#44 = EDGE_LOOP ( 'NONE', ( #29, #62, #82, #75 ) ) ;
#45 = ORIENTED_EDGE ( 'NONE', *, *, #174, .F. ) ;
#46 = EDGE_LOOP ( 'NONE', ( #6, #52, #64, #30 ) ) ;
#47 = EDGE_LOOP ( 'NONE', ( #18, #71, #42, #58 ) ) ;
#48 = LINE ( 'NONE', #78, #100 ) ;
#49 = PLANE ( 'NONE',  #120 ) ;
#50 = ORIENTED_EDGE ( 'NONE', *, *, #144, .F. ) ;
#51 = ORIENTED_EDGE ( 'NONE', *, *, #175, .T. ) ;
#52 = ORIENTED_EDGE ( 'NONE', *, *, #150, .F. ) ;
#53 = DIRECTION ( 'NONE',  ( 1.239088197126290600E-016, -1.000000000000000000, -0.0000000000000000000 ) ) ;
#54 = CARTESIAN_POINT ( 'NONE',  ( -3.500000000000000000, 0.0000000000000000000, 500.0000000000000000 ) ) ;
#55 = DIRECTION ( 'NONE',  ( -1.836970198721029700E-016, 1.000000000000000000, 0.0000000000000000000 ) ) ;
#56 = DIRECTION ( 'NONE',  ( 1.000000000000000000, 1.836970198721029700E-016, 0.0000000000000000000 ) ) ;
#57 = CARTESIAN_POINT ( 'NONE',  ( -6.429395695523604200E-016, 3.500000000000000400, 500.0000000000000000 ) ) ;
#58 = ORIENTED_EDGE ( 'NONE', *, *, #169, .T. ) ;
#59 = VERTEX_POINT ( 'NONE', #13 ) ;
#60 = DIRECTION ( 'NONE',  ( -0.0000000000000000000, -0.0000000000000000000, -1.000000000000000000 ) ) ;
#61 = DIRECTION ( 'NONE',  ( -1.000000000000000000, 0.0000000000000000000, 0.0000000000000000000 ) ) ;
#62 = ORIENTED_EDGE ( 'NONE', *, *, #171, .F. ) ;
#63 = CARTESIAN_POINT ( 'NONE',  ( 3.499999999999999600, 3.500000000000001800, 500.0000000000000000 ) ) ;
#64 = ORIENTED_EDGE ( 'NONE', *, *, #155, .F. ) ;
#65 = CARTESIAN_POINT ( 'NONE',  ( 3.499999999999999600, 3.500000000000001800, 500.0000000000000000 ) ) ;
#66 = LINE ( 'NONE', #63, #106 ) ;
#67 = ORIENTED_EDGE ( 'NONE', *, *, #142, .F. ) ;
#68 = ORIENTED_EDGE ( 'NONE', *, *, #155, .T. ) ;
#69 = ORIENTED_EDGE ( 'NONE', *, *, #161, .T. ) ;
#70 = CARTESIAN_POINT ( 'NONE',  ( -3.500000000000000400, 3.500000000000000900, 500.0000000000000000 ) ) ;
#71 = ORIENTED_EDGE ( 'NONE', *, *, #163, .F. ) ;
#72 = ORIENTED_EDGE ( 'NONE', *, *, #148, .T. ) ;
#73 = VERTEX_POINT ( 'NONE', #11 ) ;
#74 = CARTESIAN_POINT ( 'NONE',  ( -3.500000000000000000, 0.0000000000000000000, 500.0000000000000000 ) ) ;
#75 = ORIENTED_EDGE ( 'NONE', *, *, #150, .T. ) ;
#76 = VERTEX_POINT ( 'NONE', #65 ) ;
#77 = PLANE ( 'NONE',  #127 ) ;
#78 = CARTESIAN_POINT ( 'NONE',  ( 3.500000000000000000, 1.285879139104720600E-015, 500.0000000000000000 ) ) ;
#79 = DIRECTION ( 'NONE',  ( -1.000000000000000000, -1.836970198721029700E-016, 0.0000000000000000000 ) ) ;
#80 = CARTESIAN_POINT ( 'NONE',  ( -3.500000000000000000, 0.0000000000000000000, 500.0000000000000000 ) ) ;
#81 = DIRECTION ( 'NONE',  ( 0.0000000000000000000, 0.0000000000000000000, 1.000000000000000000 ) ) ;
#82 = ORIENTED_EDGE ( 'NONE', *, *, #161, .F. ) ;
#83 = CARTESIAN_POINT ( 'NONE',  ( 3.500000000000000000, 1.285879139104720600E-015, 500.0000000000000000 ) ) ;
#84 = ORIENTED_EDGE ( 'NONE', *, *, #165, .F. ) ;
#85 = ORIENTED_EDGE ( 'NONE', *, *, #169, .F. ) ;
#86 = LINE ( 'NONE', #88, #124 ) ;
#87 = DIRECTION ( 'NONE',  ( -0.0000000000000000000, -0.0000000000000000000, -1.000000000000000000 ) ) ;
#88 = CARTESIAN_POINT ( 'NONE',  ( 3.500000000000000000, 1.285879139104720600E-015, 500.0000000000000000 ) ) ;
#89 = ORIENTED_EDGE ( 'NONE', *, *, #171, .T. ) ;
#90 = ORIENTED_EDGE ( 'NONE', *, *, #175, .F. ) ;
#91 = CARTESIAN_POINT ( 'NONE',  ( -3.500000000000000000, 0.0000000000000000000, -500.0000000000000000 ) ) ;
#92 = COORDINATED_UNIVERSAL_TIME_OFFSET ( 9, 0, .AHEAD. ) ;
#93 = APPROVAL_PERSON_ORGANIZATION ( #185, #146, #183 ) ;
#94 = COORDINATED_UNIVERSAL_TIME_OFFSET ( 9, 0, .AHEAD. ) ;
#95 = FACE_OUTER_BOUND ( 'NONE', #35, .T. ) ;
#96 = AXIS2_PLACEMENT_3D ( 'NONE', #33, #22, #41 ) ;
#97 = CALENDAR_DATE ( 2015, 11, 8 ) ;
#98 = APPROVAL_PERSON_ORGANIZATION ( #207, #149, #205 ) ;
#99 = CALENDAR_DATE ( 2015, 11, 8 ) ;
#100 = VECTOR ( 'NONE', #7, 1000.000000000000000 ) ;
#101 = CC_DESIGN_APPROVAL ( #167, ( #117 ) ) ;
#102 = VECTOR ( 'NONE', #53, 1000.000000000000000 ) ;
#103 = AXIS2_PLACEMENT_3D ( 'NONE', #229, #228, #227 ) ;
#104 = COORDINATED_UNIVERSAL_TIME_OFFSET ( 9, 0, .AHEAD. ) ;
#105 = AXIS2_PLACEMENT_3D ( 'NONE', #25, #81, #15 ) ;
#106 = VECTOR ( 'NONE', #87, 1000.000000000000000 ) ;
#107 = VECTOR ( 'NONE', #223, 1000.000000000000000 ) ;
#108 = APPROVAL_PERSON_ORGANIZATION ( #200, #167, #198 ) ;
#109 = CLOSED_SHELL ( 'NONE', ( #156, #168, #160, #166, #173, #170 ) ) ;
#110 = VECTOR ( 'NONE', #239, 1000.000000000000000 ) ;
#111 = AXIS2_PLACEMENT_3D ( 'NONE', #54, #38, #28 ) ;
#112 = SECURITY_CLASSIFICATION ( '', '', #190 ) ;
#113 = VECTOR ( 'NONE', #24, 1000.000000000000000 ) ;
#114 = AXIS2_PLACEMENT_3D ( 'NONE', #216, #215, #214 ) ;
#115 = CALENDAR_DATE ( 2015, 11, 8 ) ;
#116 = VECTOR ( 'NONE', #191, 1000.000000000000000 ) ;
#117 = PRODUCT_DEFINITION_FORMATION_WITH_SPECIFIED_SOURCE ( 'ANY', '', #176, .NOT_KNOWN. ) ;
#118 = ORGANIZATION ( 'UNSPECIFIED', 'UNSPECIFIED', '' ) ;
#119 = COORDINATED_UNIVERSAL_TIME_OFFSET ( 9, 0, .AHEAD. ) ;
#120 = AXIS2_PLACEMENT_3D ( 'NONE', #74, #55, #79 ) ;
#121 = FACE_OUTER_BOUND ( 'NONE', #46, .T. ) ;
#122 = VECTOR ( 'NONE', #231, 1000.000000000000000 ) ;
#123 = FACE_OUTER_BOUND ( 'NONE', #16, .T. ) ;
#124 = VECTOR ( 'NONE', #12, 1000.000000000000000 ) ;
#125 = VECTOR ( 'NONE', #56, 1000.000000000000000 ) ;
#126 = AXIS2_PLACEMENT_3D ( 'NONE', #57, #60, #61 ) ;
#127 = AXIS2_PLACEMENT_3D ( 'NONE', #43, #20, #32 ) ;
#128 = CYLINDRICAL_SURFACE ( 'NONE', #126, 3.500000000000000000 ) ;
#129 = CC_DESIGN_SECURITY_CLASSIFICATION ( #112, ( #117 ) ) ;
#130 = CALENDAR_DATE ( 2015, 11, 8 ) ;
#131 = COORDINATED_UNIVERSAL_TIME_OFFSET ( 9, 0, .AHEAD. ) ;
#132 = CC_DESIGN_APPROVAL ( #149, ( #154 ) ) ;
#133 = FACE_OUTER_BOUND ( 'NONE', #34, .T. ) ;
#134 = CALENDAR_DATE ( 2015, 11, 8 ) ;
#135 = CC_DESIGN_APPROVAL ( #146, ( #112 ) ) ;
#136 = FACE_OUTER_BOUND ( 'NONE', #44, .T. ) ;
#137 = AXIS2_PLACEMENT_3D ( 'NONE', #236, #235, #234 ) ;
#138 = FACE_OUTER_BOUND ( 'NONE', #47, .T. ) ;
#139 = CC_DESIGN_PERSON_AND_ORGANIZATION_ASSIGNMENT ( #189, #188, ( #112 ) ) ;
#140 = CC_DESIGN_PERSON_AND_ORGANIZATION_ASSIGNMENT ( #194, #193, ( #117 ) ) ;
#141 = CC_DESIGN_DATE_AND_TIME_ASSIGNMENT ( #202, #201, ( #154 ) ) ;
#142 = EDGE_CURVE ( 'NONE', #73, #36, #40, .T. ) ;
#143 = LOCAL_TIME ( 20, 27, 51.00000000000000000, #119 ) ;
#144 = EDGE_CURVE ( 'NONE', #10, #27, #26, .T. ) ;
#145 = LOCAL_TIME ( 20, 27, 51.00000000000000000, #104 ) ;
#146 = APPROVAL ( #184, 'UNSPECIFIED' ) ;
#147 = CC_DESIGN_PERSON_AND_ORGANIZATION_ASSIGNMENT ( #210, #209, ( #176 ) ) ;
#148 = EDGE_CURVE ( 'NONE', #27, #31, #14, .T. ) ;
#149 = APPROVAL ( #206, 'UNSPECIFIED' ) ;
#150 = EDGE_CURVE ( 'NONE', #76, #17, #66, .T. ) ;
#151 = LOCAL_TIME ( 20, 27, 51.00000000000000000, #131 ) ;
#152 = CC_DESIGN_PERSON_AND_ORGANIZATION_ASSIGNMENT ( #221, #203, ( #154 ) ) ;
#153 = CIRCLE ( 'NONE', #105, 3.500000000000000000 ) ;
#154 = PRODUCT_DEFINITION ( 'UNKNOWN', '', #117, #178 ) ;
#155 = EDGE_CURVE ( 'NONE', #31, #76, #86, .T. ) ;
#156 = ADVANCED_FACE ( 'NONE', ( #95 ), #39, .F. ) ;
#157 = LOCAL_TIME ( 20, 27, 51.00000000000000000, #92 ) ;
#158 = CC_DESIGN_DATE_AND_TIME_ASSIGNMENT ( #187, #186, ( #112 ) ) ;
#159 = CIRCLE ( 'NONE', #96, 3.500000000000000000 ) ;
#160 = ADVANCED_FACE ( 'NONE', ( #121 ), #77, .F. ) ;
#161 = EDGE_CURVE ( 'NONE', #76, #10, #159, .T. ) ;
#162 = CC_DESIGN_PERSON_AND_ORGANIZATION_ASSIGNMENT ( #195, #238, ( #117 ) ) ;
#163 = EDGE_CURVE ( 'NONE', #31, #36, #48, .T. ) ;
#164 = LOCAL_TIME ( 20, 27, 51.00000000000000000, #94 ) ;
#165 = EDGE_CURVE ( 'NONE', #17, #59, #153, .T. ) ;
#166 = ADVANCED_FACE ( 'NONE', ( #136 ), #128, .T. ) ;
#167 = APPROVAL ( #199, 'UNSPECIFIED' ) ;
#168 = ADVANCED_FACE ( 'NONE', ( #138 ), #49, .F. ) ;
#169 = EDGE_CURVE ( 'NONE', #27, #73, #8, .T. ) ;
#170 = ADVANCED_FACE ( 'NONE', ( #133 ), #237, .F. ) ;
#171 = EDGE_CURVE ( 'NONE', #10, #59, #233, .T. ) ;
#172 = PRODUCT_RELATED_PRODUCT_CATEGORY ( 'detail', '', ( #176 ) ) ;
#173 = ADVANCED_FACE ( 'NONE', ( #123 ), #230, .T. ) ;
#174 = EDGE_CURVE ( 'NONE', #36, #17, #226, .T. ) ;
#175 = EDGE_CURVE ( 'NONE', #59, #73, #225, .T. ) ;
#176 = PRODUCT ( 'sone3D', 'sone3D', '', ( #212 ) ) ;
#177 =( GEOMETRIC_REPRESENTATION_CONTEXT ( 3 ) GLOBAL_UNCERTAINTY_ASSIGNED_CONTEXT ( ( #1 ) ) GLOBAL_UNIT_ASSIGNED_CONTEXT ( ( #222, #219, #218 ) ) REPRESENTATION_CONTEXT ( 'NONE', 'WORKASPACE' ) );
#178 = DESIGN_CONTEXT ( 'detailed design', #4, 'design' ) ;
#179 = PRODUCT_DEFINITION_SHAPE ( 'NONE', 'NONE',  #154 ) ;
#180 = MANIFOLD_SOLID_BREP ( 'ÎÞ½ - µoµ1', #109 ) ;
#181 = CARTESIAN_POINT ( 'NONE',  ( -3.500000000000000000, 0.0000000000000000000, 500.0000000000000000 ) ) ;
#182 = APPROVAL_DATE_TIME ( #192, #146 ) ;
#183 = APPROVAL_ROLE ( '' ) ;
#184 = APPROVAL_STATUS ( 'not_yet_approved' ) ;
#185 = PERSON_AND_ORGANIZATION ( #3, #118 ) ;
#186 = DATE_TIME_ROLE ( 'classification_date' ) ;
#187 = DATE_AND_TIME ( #115, #145 ) ;
#188 = PERSON_AND_ORGANIZATION_ROLE ( 'classification_officer' ) ;
#189 = PERSON_AND_ORGANIZATION ( #3, #118 ) ;
#190 = SECURITY_CLASSIFICATION_LEVEL ( 'unclassified' ) ;
#191 = DIRECTION ( 'NONE',  ( -1.239088197126290600E-016, 1.000000000000000000, 0.0000000000000000000 ) ) ;
#192 = DATE_AND_TIME ( #130, #157 ) ;
#193 = PERSON_AND_ORGANIZATION_ROLE ( 'design_supplier' ) ;
#194 = PERSON_AND_ORGANIZATION ( #3, #118 ) ;
#195 = PERSON_AND_ORGANIZATION ( #3, #118 ) ;
#196 = APPROVAL_DATE_TIME ( #197, #167 ) ;
#197 = DATE_AND_TIME ( #97, #164 ) ;
#198 = APPROVAL_ROLE ( '' ) ;
#199 = APPROVAL_STATUS ( 'not_yet_approved' ) ;
#200 = PERSON_AND_ORGANIZATION ( #3, #118 ) ;
#201 = DATE_TIME_ROLE ( 'creation_date' ) ;
#202 = DATE_AND_TIME ( #99, #143 ) ;
#203 = PERSON_AND_ORGANIZATION_ROLE ( 'creator' ) ;
#204 = APPROVAL_DATE_TIME ( #211, #149 ) ;
#205 = APPROVAL_ROLE ( '' ) ;
#206 = APPROVAL_STATUS ( 'not_yet_approved' ) ;
#207 = PERSON_AND_ORGANIZATION ( #3, #118 ) ;
#208 = APPLICATION_PROTOCOL_DEFINITION ( 'international standard', 'config_control_design', 1994, #4 ) ;
#209 = PERSON_AND_ORGANIZATION_ROLE ( 'design_owner' ) ;
#210 = PERSON_AND_ORGANIZATION ( #3, #118 ) ;
#211 = DATE_AND_TIME ( #134, #151 ) ;
#212 = MECHANICAL_CONTEXT ( 'NONE', #5, 'mechanical' ) ;
#213 = SHAPE_DEFINITION_REPRESENTATION ( #179, #2 ) ;
#214 = DIRECTION ( 'NONE',  ( 1.000000000000000000, 0.0000000000000000000, 0.0000000000000000000 ) ) ;
#215 = DIRECTION ( 'NONE',  ( 0.0000000000000000000, 0.0000000000000000000, 1.000000000000000000 ) ) ;
#216 = CARTESIAN_POINT ( 'NONE',  ( 0.0000000000000000000, 0.0000000000000000000, 0.0000000000000000000 ) ) ;
#217 = APPLICATION_PROTOCOL_DEFINITION ( 'international standard', 'config_control_design', 1994, #5 ) ;
#218 =( NAMED_UNIT ( * ) SI_UNIT ( $, .STERADIAN. ) SOLID_ANGLE_UNIT ( ) );
#219 =( NAMED_UNIT ( * ) PLANE_ANGLE_UNIT ( ) SI_UNIT ( $, .RADIAN. ) );
#220 = CARTESIAN_POINT ( 'NONE',  ( 3.500000000000000000, 1.285879139104720600E-015, -500.0000000000000000 ) ) ;
#221 = PERSON_AND_ORGANIZATION ( #3, #118 ) ;
#222 =( LENGTH_UNIT ( ) NAMED_UNIT ( * ) SI_UNIT ( .MILLI., .METRE. ) );
#223 = DIRECTION ( 'NONE',  ( 1.239088197126290600E-016, -1.000000000000000000, -0.0000000000000000000 ) ) ;
#224 = CARTESIAN_POINT ( 'NONE',  ( -3.500000000000000000, 0.0000000000000000000, -500.0000000000000000 ) ) ;
#225 = LINE ( 'NONE', #224, #107 ) ;
#226 = LINE ( 'NONE', #220, #116 ) ;
#227 = DIRECTION ( 'NONE',  ( 1.000000000000000000, 0.0000000000000000000, -0.0000000000000000000 ) ) ;
#228 = DIRECTION ( 'NONE',  ( 0.0000000000000000000, 0.0000000000000000000, 1.000000000000000000 ) ) ;
#229 = CARTESIAN_POINT ( 'NONE',  ( -6.429395695523604200E-016, 3.500000000000000400, 500.0000000000000000 ) ) ;
#230 = PLANE ( 'NONE',  #103 ) ;
#231 = DIRECTION ( 'NONE',  ( -0.0000000000000000000, -0.0000000000000000000, -1.000000000000000000 ) ) ;
#232 = CARTESIAN_POINT ( 'NONE',  ( -3.500000000000000400, 3.500000000000000900, 500.0000000000000000 ) ) ;
#233 = LINE ( 'NONE', #232, #122 ) ;
#234 = DIRECTION ( 'NONE',  ( 1.000000000000000000, 0.0000000000000000000, -0.0000000000000000000 ) ) ;
#235 = DIRECTION ( 'NONE',  ( 0.0000000000000000000, 0.0000000000000000000, 1.000000000000000000 ) ) ;
#236 = CARTESIAN_POINT ( 'NONE',  ( -6.429395695523604200E-016, 3.500000000000000400, -500.0000000000000000 ) ) ;
#237 = PLANE ( 'NONE',  #137 ) ;
#238 = PERSON_AND_ORGANIZATION_ROLE ( 'creator' ) ;
#239 = DIRECTION ( 'NONE',  ( -0.0000000000000000000, -0.0000000000000000000, -1.000000000000000000 ) ) ;
ENDSEC;
END-ISO-10303-21;
