ISO-10303-21;
HEADER;
FILE_DESCRIPTION (( 'STEP AP203' ),
    '1' );
FILE_NAME ('sone3D.STEP',
    '2015-08-11T11:27:11',
    ( '' ),
    ( '' ),
    'SwSTEP 2.0',
    'SolidWorks 2012',
    '' );
FILE_SCHEMA (( 'CONFIG_CONTROL_DESIGN' ));
ENDSEC;

DATA;
#1 = ADVANCED_BREP_SHAPE_REPRESENTATION ( 'sone3D', ( #152, #67 ), #151 ) ;
#2 = UNCERTAINTY_MEASURE_WITH_UNIT (LENGTH_MEASURE( 1.000000000000000100E-005 ), #221, 'distance_accuracy_value', 'NONE');
#3 = PERSON ( 'UNSPECIFIED', 'UNSPECIFIED', 'UNSPECIFIED', ('UNSPECIFIED'), ('UNSPECIFIED'), ('UNSPECIFIED') ) ;
#4 = APPLICATION_CONTEXT ( 'configuration controlled 3d designs of mechanical parts and assemblies' ) ;
#5 = APPLICATION_CONTEXT ( 'configuration controlled 3d designs of mechanical parts and assemblies' ) ;
#6 = ORIENTED_EDGE ( 'NONE', *, *, #121, .F. ) ;
#7 = ORIENTED_EDGE ( 'NONE', *, *, #138, .F. ) ;
#8 = ORIENTED_EDGE ( 'NONE', *, *, #134, .T. ) ;
#9 = EDGE_LOOP ( 'NONE', ( #37, #61, #28, #64 ) ) ;
#10 = EDGE_LOOP ( 'NONE', ( #31, #56, #50, #7 ) ) ;
#11 = EDGE_LOOP ( 'NONE', ( #63, #59, #52, #38 ) ) ;
#12 = VERTEX_POINT ( 'NONE', #49 ) ;
#13 = ORIENTED_EDGE ( 'NONE', *, *, #124, .F. ) ;
#14 = DIRECTION ( 'NONE',  ( 1.000000000000000000, 0.0000000000000000000, -0.0000000000000000000 ) ) ;
#15 = PLANE ( 'NONE',  #68 ) ;
#16 = DIRECTION ( 'NONE',  ( -0.0000000000000000000, -0.0000000000000000000, -1.000000000000000000 ) ) ;
#17 = EDGE_LOOP ( 'NONE', ( #32, #39, #60, #53 ) ) ;
#18 = CARTESIAN_POINT ( 'NONE',  ( -3.499999999999999600, 0.0000000000000000000, -500.0000000000000000 ) ) ;
#19 = VERTEX_POINT ( 'NONE', #57 ) ;
#20 = VERTEX_POINT ( 'NONE', #55 ) ;
#21 = VERTEX_POINT ( 'NONE', #62 ) ;
#22 = VERTEX_POINT ( 'NONE', #58 ) ;
#23 = VERTEX_POINT ( 'NONE', #51 ) ;
#24 = DIRECTION ( 'NONE',  ( 0.0000000000000000000, 0.0000000000000000000, 1.000000000000000000 ) ) ;
#25 = VERTEX_POINT ( 'NONE', #42 ) ;
#26 = VERTEX_POINT ( 'NONE', #43 ) ;
#27 = DIRECTION ( 'NONE',  ( -0.0000000000000000000, -1.000000000000000000, -0.0000000000000000000 ) ) ;
#28 = ORIENTED_EDGE ( 'NONE', *, *, #136, .F. ) ;
#29 = EDGE_LOOP ( 'NONE', ( #34, #36, #35, #8 ) ) ;
#30 = EDGE_LOOP ( 'NONE', ( #65, #13, #6, #33 ) ) ;
#31 = ORIENTED_EDGE ( 'NONE', *, *, #117, .F. ) ;
#32 = ORIENTED_EDGE ( 'NONE', *, *, #136, .T. ) ;
#33 = ORIENTED_EDGE ( 'NONE', *, *, #116, .T. ) ;
#34 = ORIENTED_EDGE ( 'NONE', *, *, #138, .T. ) ;
#35 = ORIENTED_EDGE ( 'NONE', *, *, #139, .F. ) ;
#36 = ORIENTED_EDGE ( 'NONE', *, *, #116, .F. ) ;
#37 = ORIENTED_EDGE ( 'NONE', *, *, #117, .T. ) ;
#38 = ORIENTED_EDGE ( 'NONE', *, *, #124, .T. ) ;
#39 = ORIENTED_EDGE ( 'NONE', *, *, #139, .T. ) ;
#40 = LINE ( 'NONE', #18, #101 ) ;
#41 = CARTESIAN_POINT ( 'NONE',  ( -4.592425496802575900E-016, 2.500000000000000900, -500.0000000000000000 ) ) ;
#42 = CARTESIAN_POINT ( 'NONE',  ( -3.499999999999999600, 0.0000000000000000000, 500.0000000000000000 ) ) ;
#43 = CARTESIAN_POINT ( 'NONE',  ( 3.499999999999999600, 1.285879139104721000E-015, -500.0000000000000000 ) ) ;
#44 = DIRECTION ( 'NONE',  ( -1.836970198721030700E-016, 1.000000000000000000, 0.0000000000000000000 ) ) ;
#45 = DIRECTION ( 'NONE',  ( -1.000000000000000000, -1.836970198721030700E-016, 0.0000000000000000000 ) ) ;
#46 = PLANE ( 'NONE',  #90 ) ;
#47 = LINE ( 'NONE', #48, #76 ) ;
#48 = CARTESIAN_POINT ( 'NONE',  ( 3.499999999999999600, 1.285879139104721000E-015, 500.0000000000000000 ) ) ;
#49 = CARTESIAN_POINT ( 'NONE',  ( -3.499999999999999100, 2.500000000000001300, -500.0000000000000000 ) ) ;
#50 = ORIENTED_EDGE ( 'NONE', *, *, #130, .F. ) ;
#51 = CARTESIAN_POINT ( 'NONE',  ( -3.499999999999999600, 0.0000000000000000000, -500.0000000000000000 ) ) ;
#52 = ORIENTED_EDGE ( 'NONE', *, *, #119, .F. ) ;
#53 = ORIENTED_EDGE ( 'NONE', *, *, #119, .T. ) ;
#54 = CARTESIAN_POINT ( 'NONE',  ( -3.499999999999999600, 0.0000000000000000000, 500.0000000000000000 ) ) ;
#55 = CARTESIAN_POINT ( 'NONE',  ( 3.499999999999997800, 2.500000000000002700, 500.0000000000000000 ) ) ;
#56 = ORIENTED_EDGE ( 'NONE', *, *, #147, .F. ) ;
#57 = CARTESIAN_POINT ( 'NONE',  ( -3.499999999999999100, 2.500000000000001300, 500.0000000000000000 ) ) ;
#58 = CARTESIAN_POINT ( 'NONE',  ( 3.499999999999999600, 1.285879139104721000E-015, 500.0000000000000000 ) ) ;
#59 = ORIENTED_EDGE ( 'NONE', *, *, #131, .F. ) ;
#60 = ORIENTED_EDGE ( 'NONE', *, *, #121, .T. ) ;
#61 = ORIENTED_EDGE ( 'NONE', *, *, #134, .F. ) ;
#62 = CARTESIAN_POINT ( 'NONE',  ( 3.499999999999997800, 2.500000000000002700, -500.0000000000000000 ) ) ;
#63 = ORIENTED_EDGE ( 'NONE', *, *, #147, .T. ) ;
#64 = ORIENTED_EDGE ( 'NONE', *, *, #131, .T. ) ;
#65 = ORIENTED_EDGE ( 'NONE', *, *, #130, .T. ) ;
#66 = VECTOR ( 'NONE', #201, 1000.000000000000000 ) ;
#67 = AXIS2_PLACEMENT_3D ( 'NONE', #161, #170, #169 ) ;
#68 = AXIS2_PLACEMENT_3D ( 'NONE', #54, #44, #45 ) ;
#69 = AXIS2_PLACEMENT_3D ( 'NONE', #206, #178, #181 ) ;
#70 = CC_DESIGN_APPROVAL ( #128, ( #72 ) ) ;
#71 = FACE_OUTER_BOUND ( 'NONE', #11, .T. ) ;
#72 = SECURITY_CLASSIFICATION ( '', '', #177 ) ;
#73 = VECTOR ( 'NONE', #232, 1000.000000000000000 ) ;
#74 = COORDINATED_UNIVERSAL_TIME_OFFSET ( 9, 0, .AHEAD. ) ;
#75 = PRODUCT_DEFINITION_FORMATION_WITH_SPECIFIED_SOURCE ( 'ANY', '', #150, .NOT_KNOWN. ) ;
#76 = VECTOR ( 'NONE', #16, 1000.000000000000000 ) ;
#77 = CALENDAR_DATE ( 2015, 11, 8 ) ;
#78 = AXIS2_PLACEMENT_3D ( 'NONE', #195, #196, #197 ) ;
#79 = COORDINATED_UNIVERSAL_TIME_OFFSET ( 9, 0, .AHEAD. ) ;
#80 = COORDINATED_UNIVERSAL_TIME_OFFSET ( 9, 0, .AHEAD. ) ;
#81 = FACE_OUTER_BOUND ( 'NONE', #17, .T. ) ;
#82 = CC_DESIGN_APPROVAL ( #122, ( #132 ) ) ;
#83 = AXIS2_PLACEMENT_3D ( 'NONE', #231, #222, #235 ) ;
#84 = FACE_OUTER_BOUND ( 'NONE', #9, .T. ) ;
#85 = FACE_OUTER_BOUND ( 'NONE', #10, .T. ) ;
#86 = ORGANIZATION ( 'UNSPECIFIED', 'UNSPECIFIED', '' ) ;
#87 = CALENDAR_DATE ( 2015, 11, 8 ) ;
#88 = VECTOR ( 'NONE', #214, 1000.000000000000000 ) ;
#89 = APPROVAL_PERSON_ORGANIZATION ( #164, #145, #190 ) ;
#90 = AXIS2_PLACEMENT_3D ( 'NONE', #41, #24, #14 ) ;
#91 = CC_DESIGN_SECURITY_CLASSIFICATION ( #72, ( #75 ) ) ;
#92 = APPROVAL_PERSON_ORGANIZATION ( #160, #122, #166 ) ;
#93 = APPROVAL_PERSON_ORGANIZATION ( #186, #128, #194 ) ;
#94 = VECTOR ( 'NONE', #228, 1000.000000000000000 ) ;
#95 = AXIS2_PLACEMENT_3D ( 'NONE', #202, #205, #203 ) ;
#96 = CALENDAR_DATE ( 2015, 11, 8 ) ;
#97 = CYLINDRICAL_SURFACE ( 'NONE', #69, 3.499999999999998700 ) ;
#98 = COORDINATED_UNIVERSAL_TIME_OFFSET ( 9, 0, .AHEAD. ) ;
#99 = VECTOR ( 'NONE', #211, 1000.000000000000000 ) ;
#100 = AXIS2_PLACEMENT_3D ( 'NONE', #224, #223, #218 ) ;
#101 = VECTOR ( 'NONE', #27, 1000.000000000000000 ) ;
#102 = FACE_OUTER_BOUND ( 'NONE', #29, .T. ) ;
#103 = VECTOR ( 'NONE', #209, 1000.000000000000000 ) ;
#104 = CALENDAR_DATE ( 2015, 11, 8 ) ;
#105 = CALENDAR_DATE ( 2015, 11, 8 ) ;
#106 = CC_DESIGN_APPROVAL ( #145, ( #75 ) ) ;
#107 = VECTOR ( 'NONE', #183, 1000.000000000000000 ) ;
#108 = CLOSED_SHELL ( 'NONE', ( #148, #115, #133, #137, #142, #118 ) ) ;
#109 = VECTOR ( 'NONE', #187, 1000.000000000000000 ) ;
#110 = COORDINATED_UNIVERSAL_TIME_OFFSET ( 9, 0, .AHEAD. ) ;
#111 = AXIS2_PLACEMENT_3D ( 'NONE', #234, #239, #220 ) ;
#112 = FACE_OUTER_BOUND ( 'NONE', #30, .T. ) ;
#113 = LOCAL_TIME ( 20, 27, 11.00000000000000000, #98 ) ;
#114 = PRODUCT_RELATED_PRODUCT_CATEGORY ( 'detail', '', ( #150 ) ) ;
#115 = ADVANCED_FACE ( 'NONE', ( #102 ), #15, .F. ) ;
#116 = EDGE_CURVE ( 'NONE', #22, #26, #47, .T. ) ;
#117 = EDGE_CURVE ( 'NONE', #12, #23, #40, .T. ) ;
#118 = ADVANCED_FACE ( 'NONE', ( #85 ), #46, .F. ) ;
#119 = EDGE_CURVE ( 'NONE', #20, #19, #146, .T. ) ;
#120 = CIRCLE ( 'NONE', #111, 3.499999999999998700 ) ;
#121 = EDGE_CURVE ( 'NONE', #22, #20, #199, .T. ) ;
#122 = APPROVAL ( #163, 'UNSPECIFIED' ) ;
#123 = CC_DESIGN_PERSON_AND_ORGANIZATION_ASSIGNMENT ( #173, #172, ( #75 ) ) ;
#124 = EDGE_CURVE ( 'NONE', #20, #21, #229, .T. ) ;
#125 = CC_DESIGN_PERSON_AND_ORGANIZATION_ASSIGNMENT ( #184, #182, ( #75 ) ) ;
#126 = CC_DESIGN_PERSON_AND_ORGANIZATION_ASSIGNMENT ( #176, #227, ( #72 ) ) ;
#127 = CC_DESIGN_PERSON_AND_ORGANIZATION_ASSIGNMENT ( #168, #167, ( #132 ) ) ;
#128 = APPROVAL ( #238, 'UNSPECIFIED' ) ;
#129 = LOCAL_TIME ( 20, 27, 11.00000000000000000, #79 ) ;
#130 = EDGE_CURVE ( 'NONE', #26, #21, #213, .T. ) ;
#131 = EDGE_CURVE ( 'NONE', #19, #12, #210, .T. ) ;
#132 = PRODUCT_DEFINITION ( 'UNKNOWN', '', #75, #153 ) ;
#133 = ADVANCED_FACE ( 'NONE', ( #112 ), #198, .F. ) ;
#134 = EDGE_CURVE ( 'NONE', #25, #23, #204, .T. ) ;
#135 = CC_DESIGN_DATE_AND_TIME_ASSIGNMENT ( #174, #171, ( #132 ) ) ;
#136 = EDGE_CURVE ( 'NONE', #19, #25, #208, .T. ) ;
#137 = ADVANCED_FACE ( 'NONE', ( #71 ), #97, .T. ) ;
#138 = EDGE_CURVE ( 'NONE', #23, #26, #230, .T. ) ;
#139 = EDGE_CURVE ( 'NONE', #25, #22, #226, .T. ) ;
#140 = LOCAL_TIME ( 20, 27, 11.00000000000000000, #80 ) ;
#141 = LOCAL_TIME ( 20, 27, 11.00000000000000000, #74 ) ;
#142 = ADVANCED_FACE ( 'NONE', ( #81 ), #189, .T. ) ;
#143 = LOCAL_TIME ( 20, 27, 11.00000000000000000, #110 ) ;
#144 = CC_DESIGN_DATE_AND_TIME_ASSIGNMENT ( #236, #188, ( #72 ) ) ;
#145 = APPROVAL ( #191, 'UNSPECIFIED' ) ;
#146 = CIRCLE ( 'NONE', #78, 3.499999999999998700 ) ;
#147 = EDGE_CURVE ( 'NONE', #21, #12, #120, .T. ) ;
#148 = ADVANCED_FACE ( 'NONE', ( #84 ), #225, .F. ) ;
#149 = CC_DESIGN_PERSON_AND_ORGANIZATION_ASSIGNMENT ( #156, #159, ( #150 ) ) ;
#150 = PRODUCT ( 'sone3D', 'sone3D', '', ( #162 ) ) ;
#151 =( GEOMETRIC_REPRESENTATION_CONTEXT ( 3 ) GLOBAL_UNCERTAINTY_ASSIGNED_CONTEXT ( ( #2 ) ) GLOBAL_UNIT_ASSIGNED_CONTEXT ( ( #221, #219, #217 ) ) REPRESENTATION_CONTEXT ( 'NONE', 'WORKASPACE' ) );
#152 = MANIFOLD_SOLID_BREP ( 'ÎÞ½ - µoµ1', #108 ) ;
#153 = DESIGN_CONTEXT ( 'detailed design', #5, 'design' ) ;
#154 = PRODUCT_DEFINITION_SHAPE ( 'NONE', 'NONE',  #132 ) ;
#155 = SHAPE_DEFINITION_REPRESENTATION ( #154, #1 ) ;
#156 = PERSON_AND_ORGANIZATION ( #3, #86 ) ;
#157 = APPROVAL_DATE_TIME ( #165, #122 ) ;
#158 = APPLICATION_PROTOCOL_DEFINITION ( 'international standard', 'config_control_design', 1994, #5 ) ;
#159 = PERSON_AND_ORGANIZATION_ROLE ( 'design_owner' ) ;
#160 = PERSON_AND_ORGANIZATION ( #3, #86 ) ;
#161 = CARTESIAN_POINT ( 'NONE',  ( 0.0000000000000000000, 0.0000000000000000000, 0.0000000000000000000 ) ) ;
#162 = MECHANICAL_CONTEXT ( 'NONE', #4, 'mechanical' ) ;
#163 = APPROVAL_STATUS ( 'not_yet_approved' ) ;
#164 = PERSON_AND_ORGANIZATION ( #3, #86 ) ;
#165 = DATE_AND_TIME ( #77, #129 ) ;
#166 = APPROVAL_ROLE ( '' ) ;
#167 = PERSON_AND_ORGANIZATION_ROLE ( 'creator' ) ;
#168 = PERSON_AND_ORGANIZATION ( #3, #86 ) ;
#169 = DIRECTION ( 'NONE',  ( 1.000000000000000000, 0.0000000000000000000, 0.0000000000000000000 ) ) ;
#170 = DIRECTION ( 'NONE',  ( 0.0000000000000000000, 0.0000000000000000000, 1.000000000000000000 ) ) ;
#171 = DATE_TIME_ROLE ( 'creation_date' ) ;
#172 = PERSON_AND_ORGANIZATION_ROLE ( 'design_supplier' ) ;
#173 = PERSON_AND_ORGANIZATION ( #3, #86 ) ;
#174 = DATE_AND_TIME ( #87, #140 ) ;
#175 = CARTESIAN_POINT ( 'NONE',  ( -3.499999999999999600, 0.0000000000000000000, 500.0000000000000000 ) ) ;
#176 = PERSON_AND_ORGANIZATION ( #3, #86 ) ;
#177 = SECURITY_CLASSIFICATION_LEVEL ( 'unclassified' ) ;
#178 = DIRECTION ( 'NONE',  ( -0.0000000000000000000, -0.0000000000000000000, -1.000000000000000000 ) ) ;
#179 = APPROVAL_DATE_TIME ( #180, #145 ) ;
#180 = DATE_AND_TIME ( #105, #141 ) ;
#181 = DIRECTION ( 'NONE',  ( -1.000000000000000000, 0.0000000000000000000, 0.0000000000000000000 ) ) ;
#182 = PERSON_AND_ORGANIZATION_ROLE ( 'creator' ) ;
#183 = DIRECTION ( 'NONE',  ( -0.0000000000000000000, -1.000000000000000000, -0.0000000000000000000 ) ) ;
#184 = PERSON_AND_ORGANIZATION ( #3, #86 ) ;
#185 = CARTESIAN_POINT ( 'NONE',  ( -3.499999999999999600, 0.0000000000000000000, -500.0000000000000000 ) ) ;
#186 = PERSON_AND_ORGANIZATION ( #3, #86 ) ;
#187 = DIRECTION ( 'NONE',  ( 1.000000000000000000, 1.836970198721030700E-016, 0.0000000000000000000 ) ) ;
#188 = DATE_TIME_ROLE ( 'classification_date' ) ;
#189 = PLANE ( 'NONE',  #83 ) ;
#190 = APPROVAL_ROLE ( '' ) ;
#191 = APPROVAL_STATUS ( 'not_yet_approved' ) ;
#192 = APPROVAL_DATE_TIME ( #193, #128 ) ;
#193 = DATE_AND_TIME ( #104, #113 ) ;
#194 = APPROVAL_ROLE ( '' ) ;
#195 = CARTESIAN_POINT ( 'NONE',  ( -4.592425496802575900E-016, 2.500000000000000900, 500.0000000000000000 ) ) ;
#196 = DIRECTION ( 'NONE',  ( 0.0000000000000000000, 0.0000000000000000000, 1.000000000000000000 ) ) ;
#197 = DIRECTION ( 'NONE',  ( 1.000000000000000000, 0.0000000000000000000, 0.0000000000000000000 ) ) ;
#198 = PLANE ( 'NONE',  #95 ) ;
#199 = LINE ( 'NONE', #200, #94 ) ;
#200 = CARTESIAN_POINT ( 'NONE',  ( 3.499999999999999600, 1.285879139104721000E-015, 500.0000000000000000 ) ) ;
#201 = DIRECTION ( 'NONE',  ( -0.0000000000000000000, -0.0000000000000000000, -1.000000000000000000 ) ) ;
#202 = CARTESIAN_POINT ( 'NONE',  ( 3.499999999999999600, 1.285879139104721000E-015, 500.0000000000000000 ) ) ;
#203 = DIRECTION ( 'NONE',  ( 6.938893903907224400E-016, -1.000000000000000000, 0.0000000000000000000 ) ) ;
#204 = LINE ( 'NONE', #207, #103 ) ;
#205 = DIRECTION ( 'NONE',  ( -1.000000000000000000, -6.938893903907224400E-016, 0.0000000000000000000 ) ) ;
#206 = CARTESIAN_POINT ( 'NONE',  ( -4.592425496802575900E-016, 2.500000000000000900, 500.0000000000000000 ) ) ;
#207 = CARTESIAN_POINT ( 'NONE',  ( -3.499999999999999600, 0.0000000000000000000, 500.0000000000000000 ) ) ;
#208 = LINE ( 'NONE', #175, #107 ) ;
#209 = DIRECTION ( 'NONE',  ( -0.0000000000000000000, -0.0000000000000000000, -1.000000000000000000 ) ) ;
#210 = LINE ( 'NONE', #212, #66 ) ;
#211 = DIRECTION ( 'NONE',  ( -6.938893903907224400E-016, 1.000000000000000000, 0.0000000000000000000 ) ) ;
#212 = CARTESIAN_POINT ( 'NONE',  ( -3.499999999999999100, 2.500000000000001300, 500.0000000000000000 ) ) ;
#213 = LINE ( 'NONE', #215, #99 ) ;
#214 = DIRECTION ( 'NONE',  ( -0.0000000000000000000, -0.0000000000000000000, -1.000000000000000000 ) ) ;
#215 = CARTESIAN_POINT ( 'NONE',  ( 3.499999999999999600, 1.285879139104721000E-015, -500.0000000000000000 ) ) ;
#216 = APPLICATION_PROTOCOL_DEFINITION ( 'international standard', 'config_control_design', 1994, #4 ) ;
#217 =( NAMED_UNIT ( * ) SI_UNIT ( $, .STERADIAN. ) SOLID_ANGLE_UNIT ( ) );
#218 = DIRECTION ( 'NONE',  ( 0.0000000000000000000, 0.0000000000000000000, -1.000000000000000000 ) ) ;
#219 =( NAMED_UNIT ( * ) PLANE_ANGLE_UNIT ( ) SI_UNIT ( $, .RADIAN. ) );
#220 = DIRECTION ( 'NONE',  ( 1.000000000000000000, 0.0000000000000000000, 0.0000000000000000000 ) ) ;
#221 =( LENGTH_UNIT ( ) NAMED_UNIT ( * ) SI_UNIT ( .MILLI., .METRE. ) );
#222 = DIRECTION ( 'NONE',  ( 0.0000000000000000000, 0.0000000000000000000, 1.000000000000000000 ) ) ;
#223 = DIRECTION ( 'NONE',  ( 1.000000000000000000, 0.0000000000000000000, 0.0000000000000000000 ) ) ;
#224 = CARTESIAN_POINT ( 'NONE',  ( -3.499999999999999600, 0.0000000000000000000, 500.0000000000000000 ) ) ;
#225 = PLANE ( 'NONE',  #100 ) ;
#226 = LINE ( 'NONE', #233, #73 ) ;
#227 = PERSON_AND_ORGANIZATION_ROLE ( 'classification_officer' ) ;
#228 = DIRECTION ( 'NONE',  ( -6.938893903907224400E-016, 1.000000000000000000, 0.0000000000000000000 ) ) ;
#229 = LINE ( 'NONE', #237, #88 ) ;
#230 = LINE ( 'NONE', #185, #109 ) ;
#231 = CARTESIAN_POINT ( 'NONE',  ( -4.592425496802575900E-016, 2.500000000000000900, 500.0000000000000000 ) ) ;
#232 = DIRECTION ( 'NONE',  ( 1.000000000000000000, 1.836970198721030700E-016, 0.0000000000000000000 ) ) ;
#233 = CARTESIAN_POINT ( 'NONE',  ( -3.499999999999999600, 0.0000000000000000000, 500.0000000000000000 ) ) ;
#234 = CARTESIAN_POINT ( 'NONE',  ( -4.592425496802575900E-016, 2.500000000000000900, -500.0000000000000000 ) ) ;
#235 = DIRECTION ( 'NONE',  ( 1.000000000000000000, 0.0000000000000000000, -0.0000000000000000000 ) ) ;
#236 = DATE_AND_TIME ( #96, #143 ) ;
#237 = CARTESIAN_POINT ( 'NONE',  ( 3.499999999999997800, 2.500000000000002700, 500.0000000000000000 ) ) ;
#238 = APPROVAL_STATUS ( 'not_yet_approved' ) ;
#239 = DIRECTION ( 'NONE',  ( 0.0000000000000000000, 0.0000000000000000000, 1.000000000000000000 ) ) ;
ENDSEC;
END-ISO-10303-21;
