ISO-10303-21;
HEADER;
FILE_DESCRIPTION (( 'STEP AP203' ),
    '1' );
FILE_NAME ('sone3D.STEP',
    '2015-08-11T11:30:56',
    ( '' ),
    ( '' ),
    'SwSTEP 2.0',
    'SolidWorks 2012',
    '' );
FILE_SCHEMA (( 'CONFIG_CONTROL_DESIGN' ));
ENDSEC;

DATA;
#1 = CALENDAR_DATE ( 2015, 11, 8 ) ;
#2 = PRODUCT_DEFINITION_FORMATION_WITH_SPECIFIED_SOURCE ( 'ANY', '', #85, .NOT_KNOWN. ) ;
#3 = APPROVAL_PERSON_ORGANIZATION ( #118, #73, #125 ) ;
#4 = AXIS2_PLACEMENT_3D ( 'NONE', #178, #174, #169 ) ;
#5 = CALENDAR_DATE ( 2015, 11, 8 ) ;
#6 = VECTOR ( 'NONE', #231, 1000.000000000000000 ) ;
#7 = COORDINATED_UNIVERSAL_TIME_OFFSET ( 9, 0, .AHEAD. ) ;
#8 = AXIS2_PLACEMENT_3D ( 'NONE', #165, #211, #156 ) ;
#9 = CC_DESIGN_APPROVAL ( #56, ( #2 ) ) ;
#10 = AXIS2_PLACEMENT_3D ( 'NONE', #160, #171, #166 ) ;
#11 = COORDINATED_UNIVERSAL_TIME_OFFSET ( 9, 0, .AHEAD. ) ;
#12 = AXIS2_PLACEMENT_3D ( 'NONE', #176, #182, #183 ) ;
#13 = ORGANIZATION ( 'UNSPECIFIED', 'UNSPECIFIED', '' ) ;
#14 = AXIS2_PLACEMENT_3D ( 'NONE', #172, #162, #164 ) ;
#15 = AXIS2_PLACEMENT_3D ( 'NONE', #159, #158, #145 ) ;
#16 = FACE_OUTER_BOUND ( 'NONE', #220, .T. ) ;
#17 = CALENDAR_DATE ( 2015, 11, 8 ) ;
#18 = AXIS2_PLACEMENT_3D ( 'NONE', #154, #150, #119 ) ;
#19 = VECTOR ( 'NONE', #157, 1000.000000000000000 ) ;
#20 = SECURITY_CLASSIFICATION ( '', '', #143 ) ;
#21 = VECTOR ( 'NONE', #189, 1000.000000000000000 ) ;
#22 = COORDINATED_UNIVERSAL_TIME_OFFSET ( 9, 0, .AHEAD. ) ;
#23 = FACE_OUTER_BOUND ( 'NONE', #221, .T. ) ;
#24 = CLOSED_SHELL ( 'NONE', ( #74, #80, #66, #67, #71, #70 ) ) ;
#25 = AXIS2_PLACEMENT_3D ( 'NONE', #223, #225, #228 ) ;
#26 = COORDINATED_UNIVERSAL_TIME_OFFSET ( 9, 0, .AHEAD. ) ;
#27 = CC_DESIGN_SECURITY_CLASSIFICATION ( #20, ( #2 ) ) ;
#28 = APPROVAL_PERSON_ORGANIZATION ( #137, #48, #144 ) ;
#29 = CC_DESIGN_APPROVAL ( #48, ( #20 ) ) ;
#30 = FACE_OUTER_BOUND ( 'NONE', #233, .T. ) ;
#31 = CYLINDRICAL_SURFACE ( 'NONE', #25, 15.00000000000000000 ) ;
#32 = APPROVAL_PERSON_ORGANIZATION ( #127, #56, #135 ) ;
#33 = VECTOR ( 'NONE', #179, 1000.000000000000000 ) ;
#34 = FACE_OUTER_BOUND ( 'NONE', #173, .T. ) ;
#35 = CALENDAR_DATE ( 2015, 11, 8 ) ;
#36 = VECTOR ( 'NONE', #96, 1000.000000000000000 ) ;
#37 = VECTOR ( 'NONE', #163, 1000.000000000000000 ) ;
#38 = COORDINATED_UNIVERSAL_TIME_OFFSET ( 9, 0, .AHEAD. ) ;
#39 = FACE_OUTER_BOUND ( 'NONE', #219, .T. ) ;
#40 = VECTOR ( 'NONE', #102, 1000.000000000000000 ) ;
#41 = VECTOR ( 'NONE', #99, 1000.000000000000000 ) ;
#42 = AXIS2_PLACEMENT_3D ( 'NONE', #229, #226, #227 ) ;
#43 = VECTOR ( 'NONE', #238, 1000.000000000000000 ) ;
#44 = VECTOR ( 'NONE', #106, 1000.000000000000000 ) ;
#45 = CALENDAR_DATE ( 2015, 11, 8 ) ;
#46 = CC_DESIGN_APPROVAL ( #73, ( #61 ) ) ;
#47 = FACE_OUTER_BOUND ( 'NONE', #222, .T. ) ;
#48 = APPROVAL ( #141, 'UNSPECIFIED' ) ;
#49 = CC_DESIGN_DATE_AND_TIME_ASSIGNMENT ( #138, #147, ( #20 ) ) ;
#50 = LOCAL_TIME ( 20, 30, 56.00000000000000000, #38 ) ;
#51 = CC_DESIGN_PERSON_AND_ORGANIZATION_ASSIGNMENT ( #146, #139, ( #20 ) ) ;
#52 = CC_DESIGN_PERSON_AND_ORGANIZATION_ASSIGNMENT ( #134, #133, ( #2 ) ) ;
#53 = EDGE_CURVE ( 'NONE', #188, #190, #168, .T. ) ;
#54 = CC_DESIGN_PERSON_AND_ORGANIZATION_ASSIGNMENT ( #142, #140, ( #2 ) ) ;
#55 = LOCAL_TIME ( 20, 30, 56.00000000000000000, #22 ) ;
#56 = APPROVAL ( #136, 'UNSPECIFIED' ) ;
#57 = PRODUCT_RELATED_PRODUCT_CATEGORY ( 'detail', '', ( #85 ) ) ;
#58 = CC_DESIGN_DATE_AND_TIME_ASSIGNMENT ( #131, #123, ( #61 ) ) ;
#59 = EDGE_CURVE ( 'NONE', #192, #185, #236, .T. ) ;
#60 = LOCAL_TIME ( 20, 30, 56.00000000000000000, #11 ) ;
#61 = PRODUCT_DEFINITION ( 'UNKNOWN', '', #2, #93 ) ;
#62 = CIRCLE ( 'NONE', #8, 15.00000000000000000 ) ;
#63 = LOCAL_TIME ( 20, 30, 56.00000000000000000, #26 ) ;
#64 = CC_DESIGN_PERSON_AND_ORGANIZATION_ASSIGNMENT ( #122, #132, ( #61 ) ) ;
#65 = EDGE_CURVE ( 'NONE', #186, #191, #239, .T. ) ;
#66 = ADVANCED_FACE ( 'NONE', ( #16 ), #235, .F. ) ;
#67 = ADVANCED_FACE ( 'NONE', ( #47 ), #31, .T. ) ;
#68 = LOCAL_TIME ( 20, 30, 56.00000000000000000, #7 ) ;
#69 = EDGE_CURVE ( 'NONE', #185, #190, #230, .T. ) ;
#70 = ADVANCED_FACE ( 'NONE', ( #30 ), #181, .F. ) ;
#71 = ADVANCED_FACE ( 'NONE', ( #34 ), #177, .T. ) ;
#72 = CIRCLE ( 'NONE', #10, 15.00000000000000000 ) ;
#73 = APPROVAL ( #148, 'UNSPECIFIED' ) ;
#74 = ADVANCED_FACE ( 'NONE', ( #23 ), #175, .F. ) ;
#75 = CC_DESIGN_PERSON_AND_ORGANIZATION_ASSIGNMENT ( #151, #121, ( #85 ) ) ;
#76 = EDGE_CURVE ( 'NONE', #187, #186, #72, .T. ) ;
#77 = EDGE_CURVE ( 'NONE', #190, #184, #170, .T. ) ;
#78 = EDGE_CURVE ( 'NONE', #184, #191, #62, .T. ) ;
#79 = EDGE_CURVE ( 'NONE', #188, #187, #234, .T. ) ;
#80 = ADVANCED_FACE ( 'NONE', ( #39 ), #161, .F. ) ;
#81 = EDGE_CURVE ( 'NONE', #187, #184, #107, .T. ) ;
#82 = EDGE_CURVE ( 'NONE', #191, #185, #104, .T. ) ;
#83 = EDGE_CURVE ( 'NONE', #192, #188, #101, .T. ) ;
#84 = EDGE_CURVE ( 'NONE', #186, #192, #98, .T. ) ;
#85 = PRODUCT ( 'sone3D', 'sone3D', '', ( #149 ) ) ;
#86 = APPLICATION_CONTEXT ( 'configuration controlled 3d designs of mechanical parts and assemblies' ) ;
#87 = APPLICATION_CONTEXT ( 'configuration controlled 3d designs of mechanical parts and assemblies' ) ;
#88 =( GEOMETRIC_REPRESENTATION_CONTEXT ( 3 ) GLOBAL_UNCERTAINTY_ASSIGNED_CONTEXT ( ( #90 ) ) GLOBAL_UNIT_ASSIGNED_CONTEXT ( ( #112, #109, #153 ) ) REPRESENTATION_CONTEXT ( 'NONE', 'WORKASPACE' ) );
#89 = PERSON ( 'UNSPECIFIED', 'UNSPECIFIED', 'UNSPECIFIED', ('UNSPECIFIED'), ('UNSPECIFIED'), ('UNSPECIFIED') ) ;
#90 = UNCERTAINTY_MEASURE_WITH_UNIT (LENGTH_MEASURE( 1.000000000000000100E-005 ), #112, 'distance_accuracy_value', 'NONE');
#91 = ADVANCED_BREP_SHAPE_REPRESENTATION ( 'sone3D', ( #92, #18 ), #88 ) ;
#92 = MANIFOLD_SOLID_BREP ( 'ÎÞ½ - µoµ1', #24 ) ;
#93 = DESIGN_CONTEXT ( 'detailed design', #87, 'design' ) ;
#94 = PRODUCT_DEFINITION_SHAPE ( 'NONE', 'NONE',  #61 ) ;
#95 = CARTESIAN_POINT ( 'NONE',  ( 14.99999999999999800, 5.000000000000008000, -500.0000000000000000 ) ) ;
#96 = DIRECTION ( 'NONE',  ( 3.469446951953612200E-016, -1.000000000000000000, -0.0000000000000000000 ) ) ;
#97 = CARTESIAN_POINT ( 'NONE',  ( -15.00000000000000000, 0.0000000000000000000, 500.0000000000000000 ) ) ;
#98 = LINE ( 'NONE', #97, #36 ) ;
#99 = DIRECTION ( 'NONE',  ( 1.000000000000000000, 1.836970198721029400E-016, 0.0000000000000000000 ) ) ;
#100 = CARTESIAN_POINT ( 'NONE',  ( -15.00000000000000000, 0.0000000000000000000, 500.0000000000000000 ) ) ;
#101 = LINE ( 'NONE', #100, #41 ) ;
#102 = DIRECTION ( 'NONE',  ( 3.469446951953612200E-016, -1.000000000000000000, -0.0000000000000000000 ) ) ;
#103 = CARTESIAN_POINT ( 'NONE',  ( -15.00000000000000000, 0.0000000000000000000, -500.0000000000000000 ) ) ;
#104 = LINE ( 'NONE', #103, #40 ) ;
#105 = CARTESIAN_POINT ( 'NONE',  ( -15.00000000000000200, 5.000000000000004400, -500.0000000000000000 ) ) ;
#106 = DIRECTION ( 'NONE',  ( -0.0000000000000000000, -0.0000000000000000000, -1.000000000000000000 ) ) ;
#107 = LINE ( 'NONE', #108, #44 ) ;
#108 = CARTESIAN_POINT ( 'NONE',  ( 14.99999999999999800, 5.000000000000008000, 500.0000000000000000 ) ) ;
#109 =( NAMED_UNIT ( * ) PLANE_ANGLE_UNIT ( ) SI_UNIT ( $, .RADIAN. ) );
#110 = CARTESIAN_POINT ( 'NONE',  ( 15.00000000000000000, 5.510910596163088000E-015, -500.0000000000000000 ) ) ;
#111 = CARTESIAN_POINT ( 'NONE',  ( -15.00000000000000000, 0.0000000000000000000, 500.0000000000000000 ) ) ;
#112 =( LENGTH_UNIT ( ) NAMED_UNIT ( * ) SI_UNIT ( .MILLI., .METRE. ) );
#113 = CARTESIAN_POINT ( 'NONE',  ( -15.00000000000000000, 0.0000000000000000000, -500.0000000000000000 ) ) ;
#114 = CARTESIAN_POINT ( 'NONE',  ( 15.00000000000000000, 5.510910596163088000E-015, 500.0000000000000000 ) ) ;
#115 = CARTESIAN_POINT ( 'NONE',  ( -15.00000000000000200, 5.000000000000004400, 500.0000000000000000 ) ) ;
#116 = CARTESIAN_POINT ( 'NONE',  ( 14.99999999999999800, 5.000000000000008000, 500.0000000000000000 ) ) ;
#117 = APPROVAL_DATE_TIME ( #126, #73 ) ;
#118 = PERSON_AND_ORGANIZATION ( #89, #13 ) ;
#119 = DIRECTION ( 'NONE',  ( 1.000000000000000000, 0.0000000000000000000, 0.0000000000000000000 ) ) ;
#120 = APPROVAL_DATE_TIME ( #128, #48 ) ;
#121 = PERSON_AND_ORGANIZATION_ROLE ( 'design_owner' ) ;
#122 = PERSON_AND_ORGANIZATION ( #89, #13 ) ;
#123 = DATE_TIME_ROLE ( 'creation_date' ) ;
#124 = APPLICATION_PROTOCOL_DEFINITION ( 'international standard', 'config_control_design', 1994, #87 ) ;
#125 = APPROVAL_ROLE ( '' ) ;
#126 = DATE_AND_TIME ( #5, #63 ) ;
#127 = PERSON_AND_ORGANIZATION ( #89, #13 ) ;
#128 = DATE_AND_TIME ( #17, #68 ) ;
#129 = APPROVAL_DATE_TIME ( #130, #56 ) ;
#130 = DATE_AND_TIME ( #35, #55 ) ;
#131 = DATE_AND_TIME ( #1, #60 ) ;
#132 = PERSON_AND_ORGANIZATION_ROLE ( 'creator' ) ;
#133 = PERSON_AND_ORGANIZATION_ROLE ( 'design_supplier' ) ;
#134 = PERSON_AND_ORGANIZATION ( #89, #13 ) ;
#135 = APPROVAL_ROLE ( '' ) ;
#136 = APPROVAL_STATUS ( 'not_yet_approved' ) ;
#137 = PERSON_AND_ORGANIZATION ( #89, #13 ) ;
#138 = DATE_AND_TIME ( #45, #50 ) ;
#139 = PERSON_AND_ORGANIZATION_ROLE ( 'classification_officer' ) ;
#140 = PERSON_AND_ORGANIZATION_ROLE ( 'creator' ) ;
#141 = APPROVAL_STATUS ( 'not_yet_approved' ) ;
#142 = PERSON_AND_ORGANIZATION ( #89, #13 ) ;
#143 = SECURITY_CLASSIFICATION_LEVEL ( 'unclassified' ) ;
#144 = APPROVAL_ROLE ( '' ) ;
#145 = DIRECTION ( 'NONE',  ( -1.000000000000000000, -1.836970198721029400E-016, 0.0000000000000000000 ) ) ;
#146 = PERSON_AND_ORGANIZATION ( #89, #13 ) ;
#147 = DATE_TIME_ROLE ( 'classification_date' ) ;
#148 = APPROVAL_STATUS ( 'not_yet_approved' ) ;
#149 = MECHANICAL_CONTEXT ( 'NONE', #86, 'mechanical' ) ;
#150 = DIRECTION ( 'NONE',  ( 0.0000000000000000000, 0.0000000000000000000, 1.000000000000000000 ) ) ;
#151 = PERSON_AND_ORGANIZATION ( #89, #13 ) ;
#152 = APPLICATION_PROTOCOL_DEFINITION ( 'international standard', 'config_control_design', 1994, #86 ) ;
#153 =( NAMED_UNIT ( * ) SI_UNIT ( $, .STERADIAN. ) SOLID_ANGLE_UNIT ( ) );
#154 = CARTESIAN_POINT ( 'NONE',  ( 0.0000000000000000000, 0.0000000000000000000, 0.0000000000000000000 ) ) ;
#155 = SHAPE_DEFINITION_REPRESENTATION ( #94, #91 ) ;
#156 = DIRECTION ( 'NONE',  ( 1.000000000000000000, 0.0000000000000000000, 0.0000000000000000000 ) ) ;
#157 = DIRECTION ( 'NONE',  ( -3.469446951953612200E-016, 1.000000000000000000, 0.0000000000000000000 ) ) ;
#158 = DIRECTION ( 'NONE',  ( -1.836970198721029400E-016, 1.000000000000000000, 0.0000000000000000000 ) ) ;
#159 = CARTESIAN_POINT ( 'NONE',  ( -15.00000000000000000, 0.0000000000000000000, 500.0000000000000000 ) ) ;
#160 = CARTESIAN_POINT ( 'NONE',  ( -9.184850993605153900E-016, 5.000000000000002700, 500.0000000000000000 ) ) ;
#161 = PLANE ( 'NONE',  #15 ) ;
#162 = DIRECTION ( 'NONE',  ( 1.000000000000000000, 3.469446951953612200E-016, -0.0000000000000000000 ) ) ;
#163 = DIRECTION ( 'NONE',  ( -3.469446951953612200E-016, 1.000000000000000000, 0.0000000000000000000 ) ) ;
#164 = DIRECTION ( 'NONE',  ( -3.469446951953612200E-016, 1.000000000000000000, 0.0000000000000000000 ) ) ;
#165 = CARTESIAN_POINT ( 'NONE',  ( -9.184850993605153900E-016, 5.000000000000002700, -500.0000000000000000 ) ) ;
#166 = DIRECTION ( 'NONE',  ( 1.000000000000000000, 0.0000000000000000000, 0.0000000000000000000 ) ) ;
#167 = CARTESIAN_POINT ( 'NONE',  ( 15.00000000000000000, 5.510910596163088000E-015, -500.0000000000000000 ) ) ;
#168 = LINE ( 'NONE', #232, #33 ) ;
#169 = DIRECTION ( 'NONE',  ( 1.000000000000000000, 0.0000000000000000000, -0.0000000000000000000 ) ) ;
#170 = LINE ( 'NONE', #167, #19 ) ;
#171 = DIRECTION ( 'NONE',  ( 0.0000000000000000000, 0.0000000000000000000, 1.000000000000000000 ) ) ;
#172 = CARTESIAN_POINT ( 'NONE',  ( -15.00000000000000000, 0.0000000000000000000, 500.0000000000000000 ) ) ;
#173 = EDGE_LOOP ( 'NONE', ( #201, #200, #199, #203 ) ) ;
#174 = DIRECTION ( 'NONE',  ( 0.0000000000000000000, 0.0000000000000000000, 1.000000000000000000 ) ) ;
#175 = PLANE ( 'NONE',  #14 ) ;
#176 = CARTESIAN_POINT ( 'NONE',  ( -9.184850993605153900E-016, 5.000000000000002700, 500.0000000000000000 ) ) ;
#177 = PLANE ( 'NONE',  #12 ) ;
#178 = CARTESIAN_POINT ( 'NONE',  ( -9.184850993605153900E-016, 5.000000000000002700, -500.0000000000000000 ) ) ;
#179 = DIRECTION ( 'NONE',  ( -0.0000000000000000000, -0.0000000000000000000, -1.000000000000000000 ) ) ;
#180 = CARTESIAN_POINT ( 'NONE',  ( -15.00000000000000000, 0.0000000000000000000, -500.0000000000000000 ) ) ;
#181 = PLANE ( 'NONE',  #4 ) ;
#182 = DIRECTION ( 'NONE',  ( 0.0000000000000000000, 0.0000000000000000000, 1.000000000000000000 ) ) ;
#183 = DIRECTION ( 'NONE',  ( 1.000000000000000000, 0.0000000000000000000, -0.0000000000000000000 ) ) ;
#184 = VERTEX_POINT ( 'NONE', #95 ) ;
#185 = VERTEX_POINT ( 'NONE', #113 ) ;
#186 = VERTEX_POINT ( 'NONE', #115 ) ;
#187 = VERTEX_POINT ( 'NONE', #116 ) ;
#188 = VERTEX_POINT ( 'NONE', #114 ) ;
#189 = DIRECTION ( 'NONE',  ( 1.000000000000000000, 1.836970198721029400E-016, 0.0000000000000000000 ) ) ;
#190 = VERTEX_POINT ( 'NONE', #110 ) ;
#191 = VERTEX_POINT ( 'NONE', #105 ) ;
#192 = VERTEX_POINT ( 'NONE', #111 ) ;
#193 = ORIENTED_EDGE ( 'NONE', *, *, #59, .F. ) ;
#194 = ORIENTED_EDGE ( 'NONE', *, *, #77, .F. ) ;
#195 = ORIENTED_EDGE ( 'NONE', *, *, #78, .F. ) ;
#196 = ORIENTED_EDGE ( 'NONE', *, *, #82, .F. ) ;
#197 = CARTESIAN_POINT ( 'NONE',  ( 15.00000000000000000, 5.510910596163088000E-015, 500.0000000000000000 ) ) ;
#198 = ORIENTED_EDGE ( 'NONE', *, *, #69, .F. ) ;
#199 = ORIENTED_EDGE ( 'NONE', *, *, #79, .T. ) ;
#200 = ORIENTED_EDGE ( 'NONE', *, *, #83, .T. ) ;
#201 = ORIENTED_EDGE ( 'NONE', *, *, #84, .T. ) ;
#202 = ORIENTED_EDGE ( 'NONE', *, *, #81, .T. ) ;
#203 = ORIENTED_EDGE ( 'NONE', *, *, #76, .T. ) ;
#204 = ORIENTED_EDGE ( 'NONE', *, *, #65, .F. ) ;
#205 = ORIENTED_EDGE ( 'NONE', *, *, #83, .F. ) ;
#206 = ORIENTED_EDGE ( 'NONE', *, *, #53, .F. ) ;
#207 = ORIENTED_EDGE ( 'NONE', *, *, #76, .F. ) ;
#208 = ORIENTED_EDGE ( 'NONE', *, *, #78, .T. ) ;
#209 = ORIENTED_EDGE ( 'NONE', *, *, #53, .T. ) ;
#210 = ORIENTED_EDGE ( 'NONE', *, *, #79, .F. ) ;
#211 = DIRECTION ( 'NONE',  ( 0.0000000000000000000, 0.0000000000000000000, 1.000000000000000000 ) ) ;
#212 = ORIENTED_EDGE ( 'NONE', *, *, #81, .F. ) ;
#213 = ORIENTED_EDGE ( 'NONE', *, *, #69, .T. ) ;
#214 = ORIENTED_EDGE ( 'NONE', *, *, #82, .T. ) ;
#215 = ORIENTED_EDGE ( 'NONE', *, *, #65, .T. ) ;
#216 = ORIENTED_EDGE ( 'NONE', *, *, #77, .T. ) ;
#217 = ORIENTED_EDGE ( 'NONE', *, *, #59, .T. ) ;
#218 = ORIENTED_EDGE ( 'NONE', *, *, #84, .F. ) ;
#219 = EDGE_LOOP ( 'NONE', ( #213, #206, #205, #217 ) ) ;
#220 = EDGE_LOOP ( 'NONE', ( #216, #212, #210, #209 ) ) ;
#221 = EDGE_LOOP ( 'NONE', ( #214, #193, #218, #215 ) ) ;
#222 = EDGE_LOOP ( 'NONE', ( #208, #204, #207, #202 ) ) ;
#223 = CARTESIAN_POINT ( 'NONE',  ( -9.184850993605153900E-016, 5.000000000000002700, 500.0000000000000000 ) ) ;
#224 = CARTESIAN_POINT ( 'NONE',  ( -15.00000000000000200, 5.000000000000004400, 500.0000000000000000 ) ) ;
#225 = DIRECTION ( 'NONE',  ( -0.0000000000000000000, -0.0000000000000000000, -1.000000000000000000 ) ) ;
#226 = DIRECTION ( 'NONE',  ( -1.000000000000000000, -3.469446951953612200E-016, 0.0000000000000000000 ) ) ;
#227 = DIRECTION ( 'NONE',  ( 3.469446951953612200E-016, -1.000000000000000000, 0.0000000000000000000 ) ) ;
#228 = DIRECTION ( 'NONE',  ( -1.000000000000000000, 0.0000000000000000000, 0.0000000000000000000 ) ) ;
#229 = CARTESIAN_POINT ( 'NONE',  ( 15.00000000000000000, 5.510910596163088000E-015, 500.0000000000000000 ) ) ;
#230 = LINE ( 'NONE', #180, #21 ) ;
#231 = DIRECTION ( 'NONE',  ( -0.0000000000000000000, -0.0000000000000000000, -1.000000000000000000 ) ) ;
#232 = CARTESIAN_POINT ( 'NONE',  ( 15.00000000000000000, 5.510910596163088000E-015, 500.0000000000000000 ) ) ;
#233 = EDGE_LOOP ( 'NONE', ( #196, #195, #194, #198 ) ) ;
#234 = LINE ( 'NONE', #197, #37 ) ;
#235 = PLANE ( 'NONE',  #42 ) ;
#236 = LINE ( 'NONE', #237, #43 ) ;
#237 = CARTESIAN_POINT ( 'NONE',  ( -15.00000000000000000, 0.0000000000000000000, 500.0000000000000000 ) ) ;
#238 = DIRECTION ( 'NONE',  ( -0.0000000000000000000, -0.0000000000000000000, -1.000000000000000000 ) ) ;
#239 = LINE ( 'NONE', #224, #6 ) ;
ENDSEC;
END-ISO-10303-21;
